  0
SECTION
  2
HEADER
  9
$ACADVER
  1
AC1009
  9
$INSBASE
 10
0
 20
0
 30
0
  9
$EXTMIN
 10
0
 20
0
  9
$EXTMAX
 10
420.5
 20
297
  9
$LIMMIN
 10
0
 20
0
  9
$LIMMAX
 10
420.5
 20
297
  9
$LTSCALE
 40
0.5
  0
ENDSEC
  0
SECTION
  2
TABLES
  0
TABLE
  2
LTYPE
 70
     9
  0
LTYPE
  2
CONTINUOUS
 70
    64
  3
実線
 72
    65
 73
     0
 40
0.0
  0
LTYPE
  2
DASHED1
 70
    64
  3
--  --  --  --  --  --  --  --  
 72
    65
 73
     2
 40
2.5
 49
1.25
 49
-1.25
  0
LTYPE
  2
DASHED2
 70
    64
  3
----    ----    ----    ----    
 72
    65
 73
     2
 40
5.0
 49
2.5
 49
-2.5
  0
LTYPE
  2
DASHED3
 70
    64
  3
------  ------  ------  ------  
 72
    65
 73
     2
 40
5.0
 49
3.75
 49
-1.25
  0
LTYPE
  2
CENTER1
 70
    64
  3
----- - ----- - ----- - ----- - 
 72
    65
 73
     4
 40
10.0
 49
6.25
 49
-1.25
 49
1.25
 49
-1.25
  0
LTYPE
  2
CENTER2
 70
    64
  3
----------  --  ----------  --  
 72
    65
 73
     4
 40
20.0
 49
12.5
 49
-2.5
 49
2.5
 49
-2.5
  0
LTYPE
  2
PHANTOM1
 70
    64
  3
--- - - --- - - --- - - --- - - 
 72
    65
 73
     6
 40
10.0
 49
3.25
 49
-1.25
 49
1.25
 49
-1.25
 49
1.25
 49
-1.25
  0
LTYPE
  2
PHANTOM2
 70
    64
  3
--------  -  -  --------  -  -  
 72
    65
 73
     6
 40
20.0
 49
10.0
 49
-2.5
 49
1.25
 49
-2.5
 49
1.25
 49
-2.5
  0
LTYPE
  2
DOT
 70
    64
  3
-   -   -   -   -   -   -   -   
 72
    65
 73
     2
 40
2.5
 49
0.625
 49
-1.875
  0
LTYPE
  2
DUMMY
 70
    64
  3
ダミー
 72
    65
 73
     0
 40
0.0
  0
LTYPE
  2
RAND1
 70
    64
  3
ランダム線1
 72
    65
 73
     4
 40
10.0
 49
1.0
 49
-2.0
 49
3.0
 49
-4.0
  0
LTYPE
  2
RAND2
 70
    64
  3
ランダム線2
 72
    65
 73
     4
 40
14.0
 49
2.0
 49
-3.0
 49
4.0
 49
-5.0
  0
LTYPE
  2
RAND3
 70
    64
  3
ランダム線3
 72
    65
 73
     4
 40
18.0
 49
3.0
 49
-4.0
 49
5.0
 49
-6.0
  0
LTYPE
  2
RAND4
 70
    64
  3
ランダム線4
 72
    65
 73
     4
 40
22.0
 49
4.0
 49
-5.0
 49
6.0
 49
-7.0
  0
LTYPE
  2
RAND5
 70
    64
  3
ランダム線5
 72
    65
 73
     4
 40
26.0
 49
5.0
 49
-6.0
 49
7.0
 49
-8.0
  0
LTYPE
  2
LONG1
 70
    64
  3
----------  --  ----------  --  
 72
    65
 73
     4
 40
40.0
 49
32.5
 49
-2.5
 49
2.5
 49
-2.5
  0
LTYPE
  2
LONG2
 70
    64
  3
--------  -  -  --------  -  -  
 72
    65
 73
     6
 40
40.0
 49
30.0
 49
-2.5
 49
1.25
 49
-2.5
 49
1.25
 49
-2.5
  0
LTYPE
  2
LONG3
 70
    64
  3
+++++++++++++++..+++++++++++++++
 72
    65
 73
     2
 40
40.0
 49
37.5
 49
-2.5
  0
LTYPE
  2
LONG4
 70
    64
  3
+++++++++++++++..+++++++++++++++
 72
    65
 73
     2
 40
80.0
 49
75.0
 49
-5.0
  0
LTYPE
  2
LONG5
 70
    64
  3
----------  --  ----------  --  
 72
    65
 73
     4
 40
60.0
 49
37.5
 49
-7.5
 49
7.5
 49
-7.5
  0
LTYPE
  2
dashed
 70
   64
  3
-------   -------------   ------
 72
   65
 73
    2
 40
7.5
 49
6
 49
-1.5
  0
LTYPE
  2
dashed_spaced
 70
   64
  3
----        --------        ----
 72
   65
 73
    2
 40
12
 49
6
 49
-6
  0
LTYPE
  2
long_dashed_dotted
 70
   64
  3
------------- --- --------------
 72
   65
 73
    4
 40
15.25
 49
12
 49
-1.5
 49
0.25
 49
-1.5
  0
LTYPE
  2
long_dashed_double-dotted
 70
   64
  3
----------- --- --- ------------
 72
   65
 73
    6
 40
17
 49
12
 49
-1.5
 49
0.25
 49
-1.5
 49
0.25
 49
-1.5
  0
LTYPE
  2
long_dashed_triplicate-dotted
 70
   64
  3
--------- --- --- --- ----------
 72
   65
 73
    8
 40
18.75
 49
12
 49
-1.5
 49
0.25
 49
-1.5
 49
0.25
 49
-1.5
 49
0.25
 49
-1.5
  0
LTYPE
  2
dotted
 70
   64
  3
   -       -       -       -    
 72
   65
 73
    2
 40
1.75
 49
0.25
 49
-1.5
  0
LTYPE
  2
chain
 70
   64
  3
-------------- -- --------------
 72
   65
 73
    4
 40
18.5
 49
12
 49
-1.5
 49
3.5
 49
-1.5
  0
LTYPE
  2
chain_double_dash
 70
   64
  3
------------ -- -- -------------
 72
   65
 73
    6
 40
23.5
 49
12
 49
-1.5
 49
3.5
 49
-1.5
 49
3.5
 49
-1.5
  0
LTYPE
  2
dashed_dotted
 70
   64
  3
-----------     -     ----------
 72
   65
 73
    4
 40
9.25
 49
6
 49
-1.5
 49
0.25
 49
-1.5
  0
LTYPE
  2
double-dashed_dotted
 70
   64
  3
------   -----------   -   -----
 72
   65
 73
    6
 40
16.75
 49
6
 49
-1.5
 49
6
 49
-1.5
 49
0.25
 49
-1.5
  0
LTYPE
  2
dashed_double-dotted
 70
   64
  3
---------    -    -    ---------
 72
   65
 73
    6
 40
11
 49
6
 49
-1.5
 49
0.25
 49
-1.5
 49
0.25
 49
-1.5
  0
LTYPE
  2
double-dashed_double-dotted
 70
   64
  3
-----   ---------   -   -   ----
 72
   65
 73
    8
 40
18.5
 49
6
 49
-1.5
 49
6
 49
-1.5
 49
0.25
 49
-1.5
 49
0.25
 49
-1.5
  0
LTYPE
  2
dashed_triplicate-dotted
 70
   64
  3
-------    -    -    -    ------
 72
   65
 73
    8
 40
12.75
 49
6
 49
-1.5
 49
0.25
 49
-1.5
 49
0.25
 49
-1.5
 49
0.25
 49
-1.5
  0
LTYPE
  2
double-dashed_triplicate-dotted
 70
   64
  3
-----  ---------  -  -  -  -----
 72
   65
 73
   10
 40
20.25
 49
6
 49
-1.5
 49
6
 49
-1.5
 49
0.25
 49
-1.5
 49
0.25
 49
-1.5
 49
0.25
 49
-1.5
  0
LTYPE
  2
undefined
 70
   64
  3
--------------------------------
 72
   65
 73
    0
 40
0
  0
LTYPE
  2
DASHED
 70
   64
  3
------     -----------     -----
 72
   65
 73
    2
 40
0.75
 49
0.5
 49
-0.25
  0
LTYPE
  2
CENTER
 70
   64
  3
----------    ----    ----------
 72
   65
 73
    4
 40
2
 49
1.25
 49
-0.25
 49
0.25
 49
-0.25
  0
LTYPE
  2
HIDDEN2
 70
   64
  3
------     -----------     -----
 72
   65
 73
    2
 40
0.1875
 49
0.125
 49
-0.0625
  0
LTYPE
  2
PHANTOM
 70
   64
  3
---------   ---   ---   --------
 72
   65
 73
    6
 40
2.5
 49
1.25
 49
-0.25
 49
0.25
 49
-0.25
 49
0.25
 49
-0.25
  0
LTYPE
  2
_
 70
   64
  3
                                
 72
   65
 73
    0
 40
0
  0
LTYPE
  2
__22
 70
   64
  3
                                
 72
   65
 73
    0
 40
0
  0
LTYPE
  2
__23
 70
   64
  3
                                
 72
   65
 73
    0
 40
0
  0
LTYPE
  2
__24
 70
   64
  3
                                
 72
   65
 73
    0
 40
0
  0
LTYPE
  2
__25
 70
   64
  3
                                
 72
   65
 73
    0
 40
0
  0
LTYPE
  2
__26
 70
   64
  3
                                
 72
   65
 73
    0
 40
0
  0
LTYPE
  2
__27
 70
   64
  3
                                
 72
   65
 73
    0
 40
0
  0
LTYPE
  2
__28
 70
   64
  3
                                
 72
   65
 73
    0
 40
0
  0
LTYPE
  2
__29
 70
   64
  3
                                
 72
   65
 73
    0
 40
0
  0
LTYPE
  2
__30
 70
   64
  3
                                
 72
   65
 73
    0
 40
0
  0
LTYPE
  2
__31
 70
   64
  3
                                
 72
   65
 73
    0
 40
0
  0
LTYPE
  2
__32
 70
   64
  3
                                
 72
   65
 73
    0
 40
0
  0
ENDTAB
  0
TABLE
  2
STYLE
  5
3
100
AcDbSymbolTable
 70
     1
  0
STYLE
  5
10
100
AcDbSymbolTableRecord
100
AcDbTextStyleTableRecord
  2
STANDARD
 70
     0
 40
0.0
 41
1.0
 50
0.0
 71
     0
 42
0.2
  3
txt
  4
bigfont.shx
  0
STYLE
  5
26
100
AcDbSymbolTableRecord
100
AcDbTextStyleTableRecord
  2
TATEGAKI
 70
    68
 40
0.0
 41
1.0
 50
0.0
 71
     0
 42
1.0
  3
txt
  4
bigfont.shx
  0
ENDTAB
  0
TABLE
  2
LAYER
 70
    9
  0
LAYER
  2
_0-0_0
 70
   64
 62
    7
  6
CONTINUOUS
  0
LAYER
  2
_0-2_SUNPOU
 70
   64
 62
    7
  6
CONTINUOUS
  0
LAYER
  2
_0-3_TEXT
 70
   64
 62
    7
  6
CONTINUOUS
  0
LAYER
  2
_0-4_HONTAI
 70
   64
 62
    7
  6
CONTINUOUS
  0
LAYER
  2
_0-5_CENTER
 70
   64
 62
    7
  6
CONTINUOUS
  0
LAYER
  2
_0-6_OSAMARISANKOU
 70
   64
 62
    7
  6
CONTINUOUS
  0
LAYER
  2
_0-7_DEFPOINTS
 70
   64
 62
    7
  6
CONTINUOUS
  0
LAYER
  2
_0-8_HONTAIFUKASIBU
 70
   64
 62
    7
  6
CONTINUOUS
  0
LAYER
  2
ADD_LINE
 70
   64
 62
    7
  6
CONTINUOUS
  0
ENDTAB
  0
ENDSEC
  0
SECTION
  2
BLOCKS
  0
ENDSEC
  0
SECTION
  2
ENTITIES
  0
TEXT
  8
_0-3_TEXT
 62
    7
 10
270.4046026402288
 20
13.874999999999914
 40
3.25
 41
1
 50
0
  1
中型アームストッパー
  0
TEXT
  8
_0-3_TEXT
 62
    7
 10
301.65460264022891
 20
22.374999999999914
 40
3.25
 41
1
 50
0
  1
333-AL
  0
TEXT
  8
_0-3_TEXT
 62
    7
 10
199.57960264022881
 20
13.874999999999914
 40
3.25
 41
1
 50
0
  1
バレル研磨
  0
TEXT
  8
_0-3_TEXT
 62
    7
 10
198.55043597356223
 20
22.374999999999914
 40
3.25
 41
1
 50
0
  1
SUS-304
  0
TEXT
  8
_0-3_TEXT
 62
    7
 10
155.28793597356224
 20
22.374999999999914
 40
3.25
 41
1
 50
0
  1
1：1
  0
TEXT
  8
_0-3_TEXT
 62
    7
 10
287.86293597356223
 20
280.03750000000007
 40
3.25
 41
1
 50
0
  1
File_No.
  0
LINE
  8
_0-2_SUNPOU
  6
CONTINUOUS
 62
    7
 10
235.72917037518192
 20
47.807188934586406
 11
319.95044784698092
 21
47.807188934586406
  0
TEXT
  8
_0-3_TEXT
 62
    7
 10
236.22917037518192
 20
41.807188934586406
 40
3
 41
1
 50
0
  1
ご注文の際には、左勝手、右勝手のご指示願います。
  0
LINE
  8
_0-2_SUNPOU
  6
CONTINUOUS
 62
    7
 10
235.72917037518192
 20
40.807188934586406
 11
319.95044784698092
 21
40.807188934586406
  0
TEXT
  8
_0-3_TEXT
 62
    7
 10
236.22917037518192
 20
48.807188934586406
 40
3
 41
1
 50
0
  1
本図は右勝手
  0
TEXT
  8
_0-3_TEXT
 62
    7
 10
151.36293597356223
 20
13.875000000000085
 40
2.5
 41
1
 50
0
  1
2024/1/31
  0
TEXT
  8
_0-3_TEXT
 62
    7
 10
312.28445255945865
 20
279.87499999999988
 40
3.25
 41
1
 50
0
  1
E01-003-10
  0
TEXT
  8
_0-3_TEXT
 62
    7
 10
-33.13706402643794
 20
44.000000000000028
 40
3.25
 41
1
 50
0
  1
　M4ナット 2個、当て板 1枚、
  0
LINE
  8
_0-6_OSAMARISANKOU
  6
PHANTOM
 62
    7
 10
416.18113553147185
 20
154.12574688519907
 11
384.18113553147185
 21
154.12574688519907
  0
LINE
  8
_0-6_OSAMARISANKOU
  6
PHANTOM
 62
    7
 10
416.18113553147185
 20
239.62574688519907
 11
384.18113553147185
 21
239.62574688519907
  0
LINE
  8
_0-6_OSAMARISANKOU
  6
PHANTOM
 62
    7
 10
416.1811355314719
 20
194.12574688519907
 11
429.6811355314719
 21
194.12574688519907
  0
LINE
  8
_0-6_OSAMARISANKOU
  6
PHANTOM
 62
    7
 10
416.1811355314719
 20
194.12574688519907
 11
416.18113553147185
 21
154.12574688519907
  0
LINE
  8
_0-6_OSAMARISANKOU
  6
PHANTOM
 62
    7
 10
416.1811355314719
 20
198.12574688519907
 11
429.6811355314719
 21
198.12574688519907
  0
LINE
  8
_0-6_OSAMARISANKOU
  6
PHANTOM
 62
    7
 10
416.1811355314719
 20
198.12574688519907
 11
416.18113553147185
 21
239.62574688519907
  0
LINE
  8
_0-6_OSAMARISANKOU
  6
PHANTOM
 62
    7
 10
420.18113553147185
 20
200.12574688519907
 11
420.18113553147185
 21
236.12574688519907
  0
LINE
  8
_0-6_OSAMARISANKOU
  6
PHANTOM
 62
    7
 10
420.18113553147185
 20
236.12574688519907
 11
500.63706402643776
 21
236.12574688519907
  0
LINE
  8
_0-6_OSAMARISANKOU
  6
PHANTOM
 62
    7
 10
420.18113553147185
 20
200.12574688519907
 11
500.63706402643776
 21
200.12574688519907
  0
LINE
  8
_0-6_OSAMARISANKOU
  6
PHANTOM
 62
    7
 10
429.6811355314719
 20
194.12574688519907
 11
429.6811355314719
 21
198.12574688519907
  0
LINE
  8
_0-8_HONTAIFUKASIBU
  6
DASHED
 62
    7
 10
439.1811355314719
 20
156.12574688519907
 11
439.1811355314719
 21
176.12574688519907
  0
LINE
  8
_0-8_HONTAIFUKASIBU
  6
DASHED
 62
    7
 10
439.18113553147173
 20
157.28644598696979
 11
450.18113553147173
 21
157.28644598696979
  0
LINE
  8
_0-8_HONTAIFUKASIBU
  6
DASHED
 62
    7
 10
439.18113553147173
 20
151.28644598696979
 11
450.18113553147173
 21
151.28644598696979
  0
LINE
  8
_0-4_HONTAI
  6
CONTINUOUS
 62
    7
 10
450.18113553147173
 20
160.28644598696979
 11
451.38113553147184
 21
160.28644598696979
  0
LINE
  8
_0-4_HONTAI
  6
CONTINUOUS
 62
    7
 10
450.18113553147173
 20
148.28644598696979
 11
451.38113553147184
 21
148.28644598696979
  0
LINE
  8
_0-4_HONTAI
  6
CONTINUOUS
 62
    7
 10
451.38113553147184
 20
148.28644598696979
 11
451.38113553147184
 21
160.28644598696979
  0
LINE
  8
_0-4_HONTAI
  6
CONTINUOUS
 62
    7
 10
450.18113553147173
 20
154.28644598696979
 11
450.18113553147173
 21
160.28644598696979
  0
LINE
  8
_0-4_HONTAI
  6
CONTINUOUS
 62
    7
 10
438.18113553147173
 20
176.35779769276788
 11
438.18113553147173
 21
185.89369607763018
  0
LINE
  8
_0-4_HONTAI
  6
CONTINUOUS
 62
    7
 10
451.18113553147173
 20
176.35779769276788
 11
451.18113553147173
 21
185.89369607763018
  0
ARC
  8
_0-4_HONTAI
  6
CONTINUOUS
 62
    7
 10
440.18113553147185
 20
185.89369607763018
 40
2
 50
120.00000000000119
 51
180
  0
ARC
  8
_0-4_HONTAI
  6
CONTINUOUS
 62
    7
 10
440.18113553147185
 20
176.35779769276788
 40
2
 50
180
 51
239.9999999999988
  0
ARC
  8
_0-4_HONTAI
  6
CONTINUOUS
 62
    7
 10
449.18113553147185
 20
185.89369607763018
 40
2
 50
0
 51
59.999999999998763
  0
ARC
  8
_0-4_HONTAI
  6
CONTINUOUS
 62
    7
 10
449.18113553147185
 20
176.35779769276788
 40
2
 50
300.00000000000119
 51
0
  0
LINE
  8
_0-8_HONTAIFUKASIBU
  6
DASHED
 62
    7
 10
436.18113553147185
 20
184.12574688519907
 11
453.18113553147179
 21
184.12574688519907
  0
LINE
  8
_0-8_HONTAIFUKASIBU
  6
DASHED
 62
    7
 10
436.18113553147185
 20
178.12574688519907
 11
453.18113553147179
 21
178.12574688519907
  0
LINE
  8
_0-4_HONTAI
  6
CONTINUOUS
 62
    7
 10
453.18113553147179
 20
175.12574688519907
 11
454.38113553147161
 21
175.12574688519907
  0
LINE
  8
_0-4_HONTAI
  6
CONTINUOUS
 62
    7
 10
453.18113553147179
 20
187.12574688519907
 11
454.38113553147161
 21
187.12574688519907
  0
LINE
  8
_0-7_DEFPOINTS
  6
CONTINUOUS
 62
    7
 10
454.38113553147161
 20
187.12574688519907
 11
454.38113553147161
 21
175.12574688519907
  0
LINE
  8
_0-4_HONTAI
  6
CONTINUOUS
 62
    7
 10
436.18113553147185
 20
198.12574688519907
 11
436.18113553147185
 21
176.12574688519907
  0
LINE
  8
_0-4_HONTAI
  6
CONTINUOUS
 62
    7
 10
438.18113553147173
 20
198.12574688519907
 11
438.18113553147173
 21
176.12574688519907
  0
LINE
  8
_0-5_CENTER
  6
CENTER
 62
    7
 10
436.45113553147183
 20
166.12574688519899
 11
451.21113553147171
 21
166.12574688519899
  0
LINE
  8
_0-5_CENTER
  6
CENTER
 62
    7
 10
452.75113553147184
 20
154.28644598696979
 11
436.31113553147162
 21
154.28644598696979
  0
LINE
  8
_0-5_CENTER
  6
CENTER
 62
    7
 10
456.35113553147164
 20
181.12574688519907
 11
432.71113553147193
 21
181.12574688519907
  0
LINE
  8
_0-5_CENTER
  6
CENTER
 62
    7
 10
408.80113553147185
 20
171.12574688519919
 11
423.5611355314719
 21
171.12574688519919
  0
LINE
  8
_0-4_HONTAI
  6
CONTINUOUS
 62
    7
 10
442.68113553147173
 20
243.12574688519907
 11
446.68113553147173
 21
243.12574688519907
  0
LINE
  8
_0-4_HONTAI
  6
CONTINUOUS
 62
    7
 10
446.18113553147173
 20
243.12574688519907
 11
446.18113553147173
 21
240.14307105815589
  0
LINE
  8
_0-4_HONTAI
  6
CONTINUOUS
 62
    7
 10
443.18113553147173
 20
243.12574688519907
 11
443.18113553147173
 21
240.14307105815589
  0
LINE
  8
_0-4_HONTAI
  6
CONTINUOUS
 62
    7
 10
446.68113553147173
 20
243.12574688519907
 11
446.68113553147173
 21
240.12574688519907
  0
LINE
  8
_0-4_HONTAI
  6
CONTINUOUS
 62
    7
 10
442.68113553147173
 20
243.12574688519907
 11
442.68113553147173
 21
240.12574688519907
  0
LINE
  8
_0-4_HONTAI
  6
CONTINUOUS
 62
    7
 10
446.68113553147173
 20
239.62574688519907
 11
446.68113553147173
 21
237.12574688519907
  0
LINE
  8
_0-4_HONTAI
  6
CONTINUOUS
 62
    7
 10
442.68113553147173
 20
239.62574688519907
 11
442.68113553147173
 21
237.12574688519907
  0
LINE
  8
_0-4_HONTAI
  6
CONTINUOUS
 62
    7
 10
449.18113553147185
 20
239.62574688519907
 11
449.18113553147185
 21
237.12574688519907
  0
LINE
  8
_0-4_HONTAI
  6
CONTINUOUS
 62
    7
 10
440.18113553147185
 20
239.62574688519907
 11
440.18113553147185
 21
237.12574688519907
  0
LINE
  8
_0-4_HONTAI
  6
CONTINUOUS
 62
    7
 10
441.43113553147173
 20
240.12574688519907
 11
447.93113553147173
 21
240.12574688519907
  0
ARC
  8
_0-4_HONTAI
  6
CONTINUOUS
 62
    7
 10
447.93113553147173
 20
238.31324688519907
 40
1.8124999999999789
 50
46.397181027292702
 51
133.60281897270729
  0
ARC
  8
_0-4_HONTAI
  6
CONTINUOUS
 62
    7
 10
441.43113553147173
 20
238.31324688519879
 40
1.8125000000001849
 50
46.397181027301201
 51
133.60281897269848
  0
ARC
  8
_0-4_HONTAI
  6
CONTINUOUS
 62
    7
 10
444.68113553147185
 20
235.87574688519907
 40
4.25
 50
61.927513064145593
 51
118.07248693585438
  0
ARC
  8
_0-4_HONTAI
  6
CONTINUOUS
 62
    7
 10
431.32549009198231
 20
240.12574688519907
 40
8.8697494975872785
 50
356.76844491992875
 51
357.47884011099296
  0
LINE
  8
_0-8_HONTAIFUKASIBU
  6
DASHED
 62
    7
 10
446.18113553147173
 20
236.12574688519907
 11
446.18113553147173
 21
200.12574688519907
  0
LINE
  8
_0-8_HONTAIFUKASIBU
  6
DASHED
 62
    7
 10
443.18113553147173
 20
236.12574688519907
 11
443.18113553147173
 21
200.12574688519907
  0
LINE
  8
_0-4_HONTAI
  6
CONTINUOUS
 62
    7
 10
446.68113553147173
 20
236.12574688519907
 11
446.68113553147173
 21
200.12574688519907
  0
LINE
  8
_0-4_HONTAI
  6
CONTINUOUS
 62
    7
 10
442.68113553147173
 20
236.12574688519907
 11
442.68113553147173
 21
200.12574688519907
  0
LINE
  8
_0-5_CENTER
  6
DASHED
 62
    7
 10
408.80113553147185
 20
161.12574688519887
 11
423.5611355314719
 21
161.12574688519887
  0
LINE
  8
_0-5_CENTER
  6
CENTER
 62
    7
 10
444.68113553147185
 20
248.12574688519907
 11
444.68113553147185
 21
193.12574688519907
  0
LINE
  8
_0-8_HONTAIFUKASIBU
  6
HIDDEN2
 62
    7
 10
442.68113553147173
 20
200.12574688519907
 11
440.68113553147185
 21
198.12574688519907
  0
LINE
  8
_0-8_HONTAIFUKASIBU
  6
HIDDEN2
 62
    7
 10
446.68113553147173
 20
200.12574688519907
 11
448.68113553147185
 21
198.12574688519907
  0
CIRCLE
  8
_0-2_SUNPOU
  6
CONTINUOUS
 62
    7
 10
308.86856039308111
 20
247.74708784849539
 40
2.5
  0
LINE
  8
_0-7_DEFPOINTS
  6
CONTINUOUS
 62
    7
 10
167.89826046280214
 20
69.417501730194373
 11
167.89826046280214
 21
67.417501730194373
  0
LINE
  8
_0-6_OSAMARISANKOU
  6
PHANTOM
 62
    7
 10
295.66856039308112
 20
247.74708784849539
 11
322.06856039308115
 21
247.74708784849539
  0
LINE
  8
_0-7_DEFPOINTS
  6
CONTINUOUS
 62
    7
 10
-5.7943982858915887
 20
74.917501730194373
 11
-5.7943982858915887
 21
70.917501730194359
  0
LINE
  8
_0-6_OSAMARISANKOU
  6
PHANTOM
 62
    7
 10
310.86856039308111
 20
150.74708784849539
 11
342.86856039308105
 21
150.74708784849539
  0
LINE
  8
_0-6_OSAMARISANKOU
  6
PHANTOM
 62
    7
 10
310.86856039308111
 20
236.24708784849539
 11
342.86856039308105
 21
236.24708784849539
  0
LINE
  8
_0-6_OSAMARISANKOU
  6
PHANTOM
 62
    7
 10
310.86856039308105
 20
190.74708784849539
 11
297.36856039308105
 21
190.74708784849539
  0
LINE
  8
_0-6_OSAMARISANKOU
  6
PHANTOM
 62
    7
 10
310.86856039308105
 20
190.74708784849539
 11
310.86856039308111
 21
150.74708784849539
  0
LINE
  8
_0-6_OSAMARISANKOU
  6
PHANTOM
 62
    7
 10
297.36856039308105
 20
190.74708784849539
 11
297.36856039308105
 21
194.74708784849539
  0
LINE
  8
_0-6_OSAMARISANKOU
  6
PHANTOM
 62
    7
 10
310.86856039308105
 20
194.74708784849539
 11
297.36856039308105
 21
194.74708784849539
  0
LINE
  8
_0-6_OSAMARISANKOU
  6
PHANTOM
 62
    7
 10
310.86856039308105
 20
194.74708784849539
 11
310.86856039308111
 21
236.24708784849539
  0
LINE
  8
_0-6_OSAMARISANKOU
  6
PHANTOM
 62
    7
 10
306.86856039308111
 20
196.74708784849528
 11
306.86856039308111
 21
232.74708784849539
  0
LINE
  8
_0-5_CENTER
  6
CENTER
 62
    7
 10
220.86856039308111
 20
91.917501730194359
 11
220.86856039308111
 21
53.917501730194373
  0
LINE
  8
_0-5_CENTER
  6
CENTER
 62
    7
 10
158.04401177386674
 20
65.417501730194359
 11
158.04401177386674
 21
48.917501730194373
  0
LINE
  8
_0-5_CENTER
  6
CENTER
 62
    7
 10
158.04401177386674
 20
91.917501730194359
 11
158.04401177386674
 21
67.917501730194359
  0
LINE
  8
_0-5_CENTER
  6
CENTER
 62
    7
 10
51.368560393081111
 20
85.417501730194373
 11
51.368560393081111
 21
61.417501730194373
  0
ARC
  8
_0-8_HONTAIFUKASIBU
  6
DASHED
 62
    7
 10
12.731527341518358
 20
72.917501730194359
 40
4
 50
329.99999999999954
 51
30.0000000000006
  0
ARC
  8
_0-8_HONTAIFUKASIBU
  6
DASHED
 62
    7
 10
12.731527341518358
 20
72.917501730194359
 40
4
 50
149.9999999999994
 51
210.00000000000051
  0
ARC
  8
_0-4_HONTAI
  6
CONTINUOUS
 62
    7
 10
12.731527341518358
 20
72.917501730194359
 40
4
 50
210.00000000000051
 51
329.99999999999948
  0
ARC
  8
_0-4_HONTAI
  6
CONTINUOUS
 62
    7
 10
12.731527341518358
 20
72.917501730194359
 40
4
 50
30.00000000000055
 51
149.9999999999994
  0
LINE
  8
_0-8_HONTAIFUKASIBU
  6
DASHED
 62
    7
 10
54.368560393081111
 20
78.417501730194359
 11
54.368560393081111
 21
67.417501730194373
  0
LINE
  8
_0-8_HONTAIFUKASIBU
  6
DASHED
 62
    7
 10
48.368560393081111
 20
78.417501730194359
 11
48.368560393081111
 21
67.417501730194373
  0
LINE
  8
_0-4_HONTAI
  6
CONTINUOUS
 62
    7
 10
57.368560393081111
 20
67.417501730194373
 11
57.368560393081111
 21
66.217501730194356
  0
LINE
  8
_0-4_HONTAI
  6
CONTINUOUS
 62
    7
 10
45.368560393081111
 20
67.417501730194373
 11
45.368560393081111
 21
66.217501730194356
  0
LINE
  8
_0-4_HONTAI
  6
CONTINUOUS
 62
    7
 10
45.368560393081111
 20
66.217501730194356
 11
57.368560393081111
 21
66.217501730194356
  0
LINE
  8
_0-4_HONTAI
  6
CONTINUOUS
 62
    7
 10
51.368560393081111
 20
67.417501730194373
 11
57.368560393081111
 21
67.417501730194373
  0
LINE
  8
_0-7_DEFPOINTS
  6
CONTINUOUS
 62
    7
 10
167.89826046280214
 20
78.417501730194359
 11
167.89826046280214
 21
76.417501730194373
  0
LINE
  8
_0-6_OSAMARISANKOU
  6
PHANTOM
 62
    7
 10
308.86856039308111
 20
234.54708784849538
 11
308.86856039308111
 21
260.94708784849541
  0
LINE
  8
_0-4_HONTAI
  6
CONTINUOUS
 62
    7
 10
128.54401177386674
 20
239.74708784849539
 11
132.54401177386674
 21
239.74708784849539
  0
LINE
  8
_0-4_HONTAI
  6
CONTINUOUS
 62
    7
 10
132.04401177386674
 20
239.74708784849539
 11
132.04401177386674
 21
236.76441202145218
  0
LINE
  8
_0-4_HONTAI
  6
CONTINUOUS
 62
    7
 10
129.04401177386662
 20
239.74708784849539
 11
129.04401177386662
 21
236.76441202145218
  0
LINE
  8
_0-4_HONTAI
  6
CONTINUOUS
 62
    7
 10
132.54401177386674
 20
239.74708784849539
 11
132.54401177386674
 21
236.74708784849539
  0
LINE
  8
_0-4_HONTAI
  6
CONTINUOUS
 62
    7
 10
128.54401177386674
 20
239.74708784849539
 11
128.54401177386674
 21
236.74708784849539
  0
LINE
  8
_0-4_HONTAI
  6
CONTINUOUS
 62
    7
 10
132.54401177386674
 20
236.24708784849539
 11
132.54401177386674
 21
233.74708784849539
  0
LINE
  8
_0-4_HONTAI
  6
CONTINUOUS
 62
    7
 10
128.54401177386674
 20
236.24708784849539
 11
128.54401177386674
 21
233.74708784849539
  0
LINE
  8
_0-4_HONTAI
  6
CONTINUOUS
 62
    7
 10
135.04401177386674
 20
236.24708784849539
 11
135.04401177386674
 21
233.74708784849539
  0
LINE
  8
_0-4_HONTAI
  6
CONTINUOUS
 62
    7
 10
126.04401177386674
 20
236.24708784849539
 11
126.04401177386674
 21
233.74708784849539
  0
LINE
  8
_0-4_HONTAI
  6
CONTINUOUS
 62
    7
 10
127.29401177386674
 20
236.74708784849539
 11
133.79401177386674
 21
236.74708784849539
  0
ARC
  8
_0-4_HONTAI
  6
CONTINUOUS
 62
    7
 10
133.79401177386674
 20
234.93458784849539
 40
1.8124999999999789
 50
46.39718102729212
 51
133.60281897270789
  0
ARC
  8
_0-4_HONTAI
  6
CONTINUOUS
 62
    7
 10
127.29401177386674
 20
234.93458784849519
 40
1.8125000000001849
 50
46.397181027301307
 51
133.60281897269871
  0
ARC
  8
_0-4_HONTAI
  6
CONTINUOUS
 62
    7
 10
130.54401177386674
 20
232.49708784849539
 40
4.25
 50
61.927513064145493
 51
118.07248693585449
  0
ARC
  8
_0-4_HONTAI
  6
CONTINUOUS
 62
    7
 10
117.18836633437723
 20
236.74708784849539
 40
8.8697494975872785
 50
356.76844491992875
 51
357.47884011099296
  0
LINE
  8
_0-8_HONTAIFUKASIBU
  6
DASHED
 62
    7
 10
132.04401177386674
 20
232.74708784849539
 11
132.04401177386674
 21
196.74708784849528
  0
LINE
  8
_0-8_HONTAIFUKASIBU
  6
DASHED
 62
    7
 10
129.04401177386662
 20
232.74708784849539
 11
129.04401177386662
 21
196.74708784849528
  0
LINE
  8
_0-4_HONTAI
  6
CONTINUOUS
 62
    7
 10
132.54401177386674
 20
232.74708784849539
 11
132.54401177386674
 21
196.74708784849528
  0
LINE
  8
_0-4_HONTAI
  6
CONTINUOUS
 62
    7
 10
128.54401177386674
 20
232.74708784849539
 11
128.54401177386674
 21
196.74708784849528
  0
LINE
  8
_0-5_CENTER
  6
CENTER
 62
    7
 10
130.54401177386674
 20
244.74708784849539
 11
130.54401177386674
 21
189.74708784849539
  0
LINE
  8
_0-6_OSAMARISANKOU
  6
PHANTOM
 62
    7
 10
306.86856039308111
 20
232.74708784849539
 11
-7.813240049009039
 21
232.74708784849539
  0
LINE
  8
_0-4_HONTAI
  6
CONTINUOUS
 62
    7
 10
183.54401177386674
 20
239.74708784849539
 11
187.54401177386674
 21
239.74708784849539
  0
LINE
  8
_0-4_HONTAI
  6
CONTINUOUS
 62
    7
 10
187.04401177386674
 20
239.74708784849539
 11
187.04401177386674
 21
236.76441202145218
  0
LINE
  8
_0-4_HONTAI
  6
CONTINUOUS
 62
    7
 10
184.04401177386674
 20
239.74708784849539
 11
184.04401177386674
 21
236.76441202145218
  0
LINE
  8
_0-4_HONTAI
  6
CONTINUOUS
 62
    7
 10
187.54401177386674
 20
239.74708784849539
 11
187.54401177386674
 21
236.74708784849539
  0
LINE
  8
_0-4_HONTAI
  6
CONTINUOUS
 62
    7
 10
183.54401177386674
 20
239.74708784849539
 11
183.54401177386674
 21
236.74708784849539
  0
LINE
  8
_0-4_HONTAI
  6
CONTINUOUS
 62
    7
 10
187.54401177386674
 20
236.24708784849539
 11
187.54401177386674
 21
233.74708784849539
  0
LINE
  8
_0-4_HONTAI
  6
CONTINUOUS
 62
    7
 10
183.54401177386674
 20
236.24708784849539
 11
183.54401177386674
 21
233.74708784849539
  0
LINE
  8
_0-4_HONTAI
  6
CONTINUOUS
 62
    7
 10
190.04401177386674
 20
236.24708784849539
 11
190.04401177386674
 21
233.74708784849539
  0
LINE
  8
_0-4_HONTAI
  6
CONTINUOUS
 62
    7
 10
181.04401177386674
 20
236.24708784849539
 11
181.04401177386674
 21
233.74708784849539
  0
LINE
  8
_0-4_HONTAI
  6
CONTINUOUS
 62
    7
 10
182.29401177386674
 20
236.74708784849539
 11
188.79401177386674
 21
236.74708784849539
  0
ARC
  8
_0-4_HONTAI
  6
CONTINUOUS
 62
    7
 10
188.79401177386674
 20
234.93458784849539
 40
1.8124999999999789
 50
46.39718102729212
 51
133.60281897270789
  0
ARC
  8
_0-4_HONTAI
  6
CONTINUOUS
 62
    7
 10
182.29401177386674
 20
234.93458784849519
 40
1.8125000000001849
 50
46.397181027301307
 51
133.60281897269871
  0
ARC
  8
_0-4_HONTAI
  6
CONTINUOUS
 62
    7
 10
185.54401177386674
 20
232.49708784849539
 40
4.25
 50
61.927513064145493
 51
118.07248693585449
  0
ARC
  8
_0-4_HONTAI
  6
CONTINUOUS
 62
    7
 10
172.18836633437723
 20
236.74708784849539
 40
8.8697494975872785
 50
356.76844491992875
 51
357.47884011099296
  0
LINE
  8
_0-8_HONTAIFUKASIBU
  6
DASHED
 62
    7
 10
187.04401177386674
 20
232.74708784849539
 11
187.04401177386674
 21
196.74708784849528
  0
LINE
  8
_0-8_HONTAIFUKASIBU
  6
DASHED
 62
    7
 10
184.04401177386674
 20
232.74708784849539
 11
184.04401177386674
 21
196.74708784849528
  0
LINE
  8
_0-4_HONTAI
  6
CONTINUOUS
 62
    7
 10
187.54401177386674
 20
232.74708784849539
 11
187.54401177386674
 21
196.74708784849528
  0
LINE
  8
_0-4_HONTAI
  6
CONTINUOUS
 62
    7
 10
183.54401177386674
 20
232.74708784849539
 11
183.54401177386674
 21
196.74708784849528
  0
LINE
  8
_0-5_CENTER
  6
CENTER
 62
    7
 10
185.54401177386674
 20
244.74708784849539
 11
185.54401177386674
 21
189.74708784849539
  0
LINE
  8
_0-5_CENTER
  6
CENTER
 62
    7
 10
145.54401177386674
 20
224.74708784849539
 11
145.54401177386674
 21
189.74708784849539
  0
LINE
  8
_0-5_CENTER
  6
CENTER
 62
    7
 10
170.54401177386674
 20
224.74708784849539
 11
170.54401177386674
 21
189.74708784849539
  0
LINE
  8
_0-5_CENTER
  6
CENTER
 62
    7
 10
125.54401177386662
 20
72.91750173019443
 11
135.54401177386674
 21
72.91750173019443
  0
LINE
  8
_0-5_CENTER
  6
CENTER
 62
    7
 10
130.54401177386674
 20
67.91750173019443
 11
130.54401177386674
 21
77.91750173019443
  0
LINE
  8
_0-5_CENTER
  6
CENTER
 62
    7
 10
140.54401177386662
 20
72.91750173019443
 11
150.54401177386674
 21
72.91750173019443
  0
LINE
  8
_0-5_CENTER
  6
CENTER
 62
    7
 10
145.54401177386674
 20
67.91750173019443
 11
145.54401177386674
 21
77.91750173019443
  0
LINE
  8
_0-5_CENTER
  6
CENTER
 62
    7
 10
165.54401177386674
 20
72.91750173019443
 11
175.54401177386674
 21
72.91750173019443
  0
LINE
  8
_0-5_CENTER
  6
CENTER
 62
    7
 10
170.54401177386674
 20
67.91750173019443
 11
170.54401177386674
 21
77.91750173019443
  0
LINE
  8
_0-5_CENTER
  6
CENTER
 62
    7
 10
180.54401177386674
 20
72.91750173019443
 11
190.54401177386674
 21
72.91750173019443
  0
LINE
  8
_0-5_CENTER
  6
CENTER
 62
    7
 10
185.54401177386674
 20
67.91750173019443
 11
185.54401177386674
 21
77.91750173019443
  0
LINE
  8
_0-4_HONTAI
  6
CONTINUOUS
 62
    7
 10
82.300224297959033
 20
79.417501730194373
 11
98.406953679249937
 21
79.417501730194373
  0
LINE
  8
_0-4_HONTAI
  6
CONTINUOUS
 62
    7
 10
82.300224297959033
 20
66.417501730194331
 11
98.406953679249937
 21
66.417501730194373
  0
ARC
  8
_0-4_HONTAI
  6
CONTINUOUS
 62
    7
 10
82.300224297959033
 20
68.417501730194359
 40
2
 50
210.00000000000051
 51
270
  0
ARC
  8
_0-4_HONTAI
  6
CONTINUOUS
 62
    7
 10
98.406953679249937
 20
68.417501730194359
 40
2
 50
270
 51
329.99999999999948
  0
ARC
  8
_0-4_HONTAI
  6
CONTINUOUS
 62
    7
 10
82.300224297959033
 20
77.417501730194373
 40
2
 50
90
 51
149.99999999999943
  0
ARC
  8
_0-4_HONTAI
  6
CONTINUOUS
 62
    7
 10
98.406953679249937
 20
77.417501730194373
 40
2
 50
30.00000000000055
 51
90
  0
LINE
  8
_0-4_HONTAI
  6
CONTINUOUS
 62
    7
 10
216.36856039308111
 20
67.617501730194362
 11
225.36856039308111
 21
67.617501730194362
  0
LINE
  8
_0-4_HONTAI
  6
CONTINUOUS
 62
    7
 10
225.36856039308111
 20
67.617501730194362
 11
225.36856039308111
 21
69.617501730194362
  0
LINE
  8
_0-4_HONTAI
  6
CONTINUOUS
 62
    7
 10
225.36856039308111
 20
69.617501730194362
 11
224.36856039308111
 21
69.617501730194362
  0
LINE
  8
_0-8_HONTAIFUKASIBU
  6
DASHED
 62
    7
 10
224.36856039308111
 20
69.617501730194362
 11
224.36856039308111
 21
70.617501730194362
  0
LINE
  8
_0-8_HONTAIFUKASIBU
  6
DASHED
 62
    7
 10
225.36856039308111
 20
70.617501730194362
 11
225.36856039308111
 21
74.917501730194373
  0
LINE
  8
_0-4_HONTAI
  6
CONTINUOUS
 62
    7
 10
225.36856039308111
 20
74.917501730194373
 11
225.36856039308111
 21
75.617501730194362
  0
LINE
  8
_0-4_HONTAI
  6
CONTINUOUS
 62
    7
 10
225.36856039308111
 20
75.617501730194362
 11
216.36856039308111
 21
75.617501730194362
  0
LINE
  8
_0-4_HONTAI
  6
CONTINUOUS
 62
    7
 10
216.36856039308111
 20
75.617501730194362
 11
216.36856039308111
 21
74.917501730194373
  0
LINE
  8
_0-8_HONTAIFUKASIBU
  6
DASHED
 62
    7
 10
216.36856039308111
 20
74.917501730194373
 11
216.36856039308111
 21
70.617501730194362
  0
LINE
  8
_0-8_HONTAIFUKASIBU
  6
DASHED
 62
    7
 10
217.36856039308111
 20
70.617501730194362
 11
217.36856039308111
 21
69.617501730194362
  0
LINE
  8
_0-4_HONTAI
  6
CONTINUOUS
 62
    7
 10
217.36856039308111
 20
69.617501730194362
 11
216.36856039308111
 21
69.617501730194362
  0
LINE
  8
_0-4_HONTAI
  6
CONTINUOUS
 62
    7
 10
216.36856039308111
 20
69.617501730194362
 11
216.36856039308111
 21
67.617501730194362
  0
LINE
  8
_0-5_CENTER
  6
CENTER
 62
    7
 10
248.86856039308111
 20
72.917501730194359
 11
-7.813240049009039
 21
72.917501730194359
  0
LINE
  8
_0-8_HONTAIFUKASIBU
  6
DASHED
 62
    7
 10
225.36856039308111
 20
70.617501730194362
 11
216.36856039308111
 21
70.617501730194362
  0
LINE
  8
_0-4_HONTAI
  6
CONTINUOUS
 62
    7
 10
153.27606258143563
 20
79.417501730194373
 11
162.81196096629781
 21
79.417501730194373
  0
LINE
  8
_0-4_HONTAI
  6
CONTINUOUS
 62
    7
 10
153.27606258143563
 20
66.417501730194373
 11
162.81196096629781
 21
66.417501730194373
  0
ARC
  8
_0-4_HONTAI
  6
CONTINUOUS
 62
    7
 10
162.81196096629781
 20
77.417501730194373
 40
2
 50
30.00000000000055
 51
90
  0
ARC
  8
_0-4_HONTAI
  6
CONTINUOUS
 62
    7
 10
153.27606258143563
 20
77.417501730194373
 40
2
 50
90
 51
149.99999999999943
  0
ARC
  8
_0-4_HONTAI
  6
CONTINUOUS
 62
    7
 10
162.81196096629781
 20
68.417501730194345
 40
2
 50
270
 51
329.99999999999948
  0
ARC
  8
_0-4_HONTAI
  6
CONTINUOUS
 62
    7
 10
153.27606258143563
 20
68.417501730194345
 40
2
 50
210.00000000000051
 51
270
  0
LINE
  8
_0-8_HONTAIFUKASIBU
  6
DASHED
 62
    7
 10
161.04401177386674
 20
81.41750173019443
 11
161.04401177386674
 21
64.41750173019443
  0
LINE
  8
_0-8_HONTAIFUKASIBU
  6
DASHED
 62
    7
 10
155.04401177386674
 20
81.41750173019443
 11
155.04401177386674
 21
64.41750173019443
  0
LINE
  8
_0-4_HONTAI
  6
CONTINUOUS
 62
    7
 10
152.04401177386674
 20
64.41750173019443
 11
152.04401177386674
 21
63.217501730194413
  0
LINE
  8
_0-4_HONTAI
  6
CONTINUOUS
 62
    7
 10
152.04401177386674
 20
63.217501730194413
 11
164.04401177386674
 21
63.217501730194413
  0
LINE
  8
_0-4_HONTAI
  6
CONTINUOUS
 62
    7
 10
164.04401177386674
 20
64.41750173019443
 11
164.04401177386674
 21
63.217501730194413
  0
LINE
  8
_0-6_OSAMARISANKOU
  6
PHANTOM
 62
    7
 10
306.49797703682332
 20
101.41750173019418
 11
-8.1838234052668781
 21
101.41750173019418
  0
LINE
  8
_0-6_OSAMARISANKOU
  6
PHANTOM
 62
    7
 10
306.86856039308111
 20
196.74708784849528
 11
-7.813240049009039
 21
196.74708784849528
  0
LINE
  8
_0-8_HONTAIFUKASIBU
  6
DASHED
 62
    7
 10
100.23650925273943
 20
72.917501730194359
 11
100.23650925273943
 21
74.917501730194373
  0
LINE
  8
_0-8_HONTAIFUKASIBU
  6
DASHED
 62
    7
 10
100.23650925273943
 20
72.917501730194359
 11
100.23650925273943
 21
70.917501730194359
  0
LINE
  8
_0-8_HONTAIFUKASIBU
  6
DASHED
 62
    7
 10
100.23650925273943
 20
72.917501730194359
 11
111.41449343729172
 21
72.917501730194359
  0
LINE
  8
_0-8_HONTAIFUKASIBU
  6
DASHED
 62
    7
 10
100.23650925273943
 20
72.917501730194359
 11
111.41449343729172
 21
72.917501730194359
  0
LINE
  8
_0-8_HONTAIFUKASIBU
  6
DASHED
 62
    7
 10
115.74292056203793
 20
69.417501730194373
 11
112.82870699966483
 21
72.331715292567452
  0
LINE
  8
_0-8_HONTAIFUKASIBU
  6
DASHED
 62
    7
 10
112.91449343729172
 20
69.417501730194373
 11
111.41449343729172
 21
70.917501730194359
  0
ARC
  8
_0-8_HONTAIFUKASIBU
  6
DASHED
 62
    7
 10
111.41449343729172
 20
70.917501730194359
 40
2
 50
45
 51
90
  0
LINE
  8
_0-8_HONTAIFUKASIBU
  6
DASHED
 62
    7
 10
112.82870699966483
 20
73.503288167821267
 11
115.74292056203793
 21
76.417501730194373
  0
LINE
  8
_0-8_HONTAIFUKASIBU
  6
DASHED
 62
    7
 10
111.41449343729172
 20
74.917501730194373
 11
112.91449343729172
 21
76.417501730194373
  0
ARC
  8
_0-8_HONTAIFUKASIBU
  6
DASHED
 62
    7
 10
111.41449343729172
 20
74.917501730194373
 40
2
 50
270
 51
315
  0
LINE
  8
_0-8_HONTAIFUKASIBU
  6
DASHED
 62
    7
 10
100.23650925273943
 20
74.917501730194373
 11
111.41449343729172
 21
74.917501730194373
  0
LINE
  8
_0-8_HONTAIFUKASIBU
  6
DASHED
 62
    7
 10
100.23650925273943
 20
70.917501730194359
 11
111.41449343729172
 21
70.917501730194359
  0
LINE
  8
_0-0_0
  6
CONTINUOUS
 62
    7
 10
217.86856039308111
 20
76.41750173019426
 11
217.86856039308111
 21
75.617501730194362
  0
LINE
  8
_0-0_0
  6
CONTINUOUS
 62
    7
 10
223.86856039308111
 20
76.41750173019426
 11
223.86856039308111
 21
75.617501730194362
  0
CIRCLE
  8
_0-4_HONTAI
  6
CONTINUOUS
 62
    7
 10
51.368560393081111
 20
150.90778695026608
 40
5
  0
CIRCLE
  8
_0-4_HONTAI
  6
CONTINUOUS
 62
    7
 10
158.04401177386674
 20
177.74708784849539
 40
5
  0
LINE
  8
_0-5_CENTER
  6
CENTER
 62
    7
 10
220.86856039308111
 20
237.74708784849539
 11
220.86856039308111
 21
85.917501730194359
  0
LINE
  8
_0-5_CENTER
  6
CENTER
 62
    7
 10
158.04401177386674
 20
238.74708784849539
 11
158.04401177386674
 21
85.917501730194359
  0
LINE
  8
_0-2_SUNPOU
  6
CONTINUOUS
 62
    7
 10
-5.7943982858915319
 20
164.20905090551687
 11
-5.7943982858915319
 21
270.12167981450346
  0
LINE
  8
_0-2_SUNPOU
  6
CONTINUOUS
 62
    7
 10
308.86856039308111
 20
253.27876232471888
 11
308.86856039308111
 21
270.12167981450346
  0
LINE
  8
_0-2_SUNPOU
  6
CONTINUOUS
 62
    7
 10
-4.7943982858915319
 20
269.12167981450346
 11
307.86856039308111
 21
269.12167981450346
  0
LINE
  8
_0-2_SUNPOU
  6
CONTINUOUS
 62
    7
 10
147.04401177386674
 20
177.74708784849539
 11
112.04401177386662
 21
177.74708784849539
  0
LINE
  8
_0-2_SUNPOU
  6
CONTINUOUS
 62
    7
 10
118.04401177386674
 20
196.74708784849528
 11
112.04401177386674
 21
196.74708784849528
  0
LINE
  8
_0-2_SUNPOU
  6
CONTINUOUS
 62
    7
 10
113.04401177386662
 20
178.74708784849539
 11
113.04401177386674
 21
195.74708784849539
  0
LINE
  8
_0-4_HONTAI
  6
CONTINUOUS
 62
    7
 10
41.868560393081111
 20
69.417501730194373
 11
167.89826046280214
 21
69.417501730194373
  0
LINE
  8
_0-4_HONTAI
  6
CONTINUOUS
 62
    7
 10
167.89826046280214
 20
69.417501730194373
 11
167.89826046280214
 21
67.417501730194373
  0
LINE
  8
_0-4_HONTAI
  6
CONTINUOUS
 62
    7
 10
167.89826046280214
 20
67.417501730194373
 11
41.868560393081111
 21
67.417501730194373
  0
LINE
  8
_0-4_HONTAI
  6
CONTINUOUS
 62
    7
 10
41.868560393081111
 20
67.417501730194373
 11
41.868560393081111
 21
69.417501730194373
  0
LINE
  8
_0-4_HONTAI
  6
CONTINUOUS
 62
    7
 10
41.868560393081111
 20
78.417501730194359
 11
167.89826046280214
 21
78.417501730194359
  0
LINE
  8
_0-4_HONTAI
  6
CONTINUOUS
 62
    7
 10
167.89826046280214
 20
78.417501730194359
 11
167.89826046280214
 21
76.417501730194373
  0
LINE
  8
_0-4_HONTAI
  6
CONTINUOUS
 62
    7
 10
167.89826046280214
 20
76.417501730194373
 11
41.868560393081111
 21
76.417501730194373
  0
LINE
  8
_0-4_HONTAI
  6
CONTINUOUS
 62
    7
 10
41.868560393081111
 20
76.417501730194373
 11
41.868560393081111
 21
78.417501730194359
  0
LINE
  8
_0-4_HONTAI
  6
CONTINUOUS
 62
    7
 10
-5.7943982858915887
 20
74.917501730194373
 11
228.86856039308111
 21
74.917501730194373
  0
LINE
  8
_0-4_HONTAI
  6
CONTINUOUS
 62
    7
 10
228.86856039308111
 20
74.917501730194373
 11
228.86856039308111
 21
70.917501730194359
  0
LINE
  8
_0-4_HONTAI
  6
CONTINUOUS
 62
    7
 10
228.86856039308111
 20
70.917501730194359
 11
-5.7943982858915887
 21
70.917501730194359
  0
LINE
  8
_0-4_HONTAI
  6
CONTINUOUS
 62
    7
 10
-5.7943982858915887
 20
70.917501730194359
 11
-5.7943982858915887
 21
74.917501730194373
  0
LINE
  8
_0-3_TEXT
  6
CONTINUOUS
 62
    7
 10
176.13639245254492
 20
185.06080037775848
 11
181.13639245254503
 21
185.06080037775848
  0
SOLID
  8
_0-3_TEXT
  6
CONTINUOUS
 62
    7
 10
171.61099907197461
 20
191.89901163714199
 11
170.54401177386682
 21
194.74708784849539
 12
172.47702447575903
 22
192.39901163714208
 13
172.47702447575903
 23
192.39901163714208
  0
LINE
  8
_0-3_TEXT
  6
CONTINUOUS
 62
    7
 10
255.0288144309257
 20
116.41750173019428
 11
260.0288144309257
 21
116.41750173019428
  0
SOLID
  8
_0-3_TEXT
  6
CONTINUOUS
 62
    7
 10
248.30157309497343
 20
103.76557794154749
 11
246.36856039308111
 21
101.41750173019418
 12
247.43554769118895
 22
104.26557794154749
 13
247.43554769118895
 23
104.26557794154749
  0
LINE
  8
_0-3_TEXT
  6
CONTINUOUS
 62
    7
 10
119.75875773602191
 20
54.236893764110504
 11
117.75875773602191
 21
54.236893764110504
  0
SOLID
  8
_0-3_TEXT
  6
CONTINUOUS
 62
    7
 10
126.48599907197441
 20
66.888817552757217
 11
128.41901177386662
 21
69.23689376411049
 12
127.35202447575883
 22
66.388817552757203
 13
127.35202447575883
 23
66.388817552757203
  0
LINE
  8
_0-2_SUNPOU
  6
CONTINUOUS
 62
    7
 10
186.43467800218792
 20
62.91750173019443
 11
202.4346780021878
 21
62.91750173019443
  0
LINE
  8
_0-2_SUNPOU
  6
CONTINUOUS
 62
    7
 10
186.43467800218792
 20
82.91750173019443
 11
202.4346780021878
 21
82.91750173019443
  0
LINE
  8
_0-2_SUNPOU
  6
CONTINUOUS
 62
    7
 10
201.4346780021878
 20
63.91750173019443
 11
201.4346780021878
 21
81.91750173019443
  0
LINE
  8
_0-2_SUNPOU
  6
CONTINUOUS
 62
    7
 10
129.65334554554553
 20
82.91750173019443
 11
113.65334554554553
 21
82.91750173019443
  0
LINE
  8
_0-2_SUNPOU
  6
CONTINUOUS
 62
    7
 10
109.65334554554553
 20
101.41750173019418
 11
113.65334554554553
 21
101.41750173019418
  0
LINE
  8
_0-2_SUNPOU
  6
CONTINUOUS
 62
    7
 10
114.65334554554553
 20
83.91750173019443
 11
114.65334554554553
 21
100.41750173019418
  0
LINE
  8
_0-3_TEXT
  6
CONTINUOUS
 62
    7
 10
260.61171819958025
 20
143.07721486741769
 11
267.61171819958025
 21
143.07721486741769
  0
SOLID
  8
_0-3_TEXT
  6
CONTINUOUS
 62
    7
 10
248.72422282578372
 20
163.33362749623998
 11
248.36856039308111
 21
164.28298623335768
 12
249.01289796037855
 22
163.50029416290658
 13
249.01289796037855
 23
163.50029416290658
  0
LINE
  8
_0-2_SUNPOU
  6
CONTINUOUS
 62
    7
 10
294.668560393081
 20
247.74708784849539
 11
279.86856039308111
 21
247.74708784849539
  0
LINE
  8
_0-2_SUNPOU
  6
CONTINUOUS
 62
    7
 10
280.86856039308111
 20
246.74708784849539
 11
280.86856039308111
 21
224.24708784849528
  0
LINE
  8
_0-2_SUNPOU
  6
CONTINUOUS
 62
    7
 10
280.86856039308111
 20
197.74708784849528
 11
280.86856039308111
 21
220.24708784849528
  0
LINE
  8
_0-3_TEXT
  6
CONTINUOUS
 62
    7
 10
116.30085396736762
 20
242.95285921443539
 11
114.30085396736762
 21
242.95285921443539
  0
SOLID
  8
_0-3_TEXT
  6
CONTINUOUS
 62
    7
 10
128.18834934116412
 20
222.69644658561307
 11
128.54401177386674
 21
221.74708784849539
 12
127.89967420656932
 22
222.52977991894647
 13
127.89967420656932
 23
222.52977991894647
  0
LINE
  8
_0-2_SUNPOU
  6
CONTINUOUS
 62
    7
 10
17.183687914794745
 20
141.40778695026639
 11
-16.876812951316082
 21
141.40778695026639
  0
LINE
  8
_0-2_SUNPOU
  6
CONTINUOUS
 62
    7
 10
-5.8768129513160829
 20
196.74708784849528
 11
-16.876812951316082
 21
196.74708784849528
  0
LINE
  8
_0-2_SUNPOU
  6
CONTINUOUS
 62
    7
 10
-15.876812951316082
 20
142.40778695026639
 11
-15.876812951316082
 21
195.74708784849528
  0
LINE
  8
_0-2_SUNPOU
  6
CONTINUOUS
 62
    7
 10
195.36856039308113
 20
150.74708784849539
 11
195.36856039308113
 21
139.74708784849539
  0
LINE
  8
_0-2_SUNPOU
  6
CONTINUOUS
 62
    7
 10
220.86856039308111
 20
155.74708784849539
 11
220.86856039308111
 21
139.74708784849539
  0
LINE
  8
_0-2_SUNPOU
  6
CONTINUOUS
 62
    7
 10
196.36856039308111
 20
140.74708784849539
 11
219.86856039308111
 21
140.74708784849539
  0
LINE
  8
_0-2_SUNPOU
  6
CONTINUOUS
 62
    7
 10
241.36856039308111
 20
150.74708784849539
 11
241.36856039308111
 21
139.74708784849539
  0
LINE
  8
_0-2_SUNPOU
  6
CONTINUOUS
 62
    7
 10
221.86856039308111
 20
140.74708784849539
 11
240.36856039308111
 21
140.74708784849539
  0
LINE
  8
_0-2_SUNPOU
  6
CONTINUOUS
 62
    7
 10
200.36856039308111
 20
160.74708784849539
 11
200.36856039308111
 21
131.74708784849539
  0
LINE
  8
_0-2_SUNPOU
  6
CONTINUOUS
 62
    7
 10
220.86856039308111
 20
155.74708784849539
 11
220.86856039308111
 21
131.74708784849539
  0
LINE
  8
_0-2_SUNPOU
  6
CONTINUOUS
 62
    7
 10
201.36856039308111
 20
132.74708784849539
 11
219.86856039308111
 21
132.74708784849539
  0
LINE
  8
_0-2_SUNPOU
  6
CONTINUOUS
 62
    7
 10
246.36856039308111
 20
160.74708784849548
 11
246.36856039308111
 21
131.74708784849539
  0
LINE
  8
_0-2_SUNPOU
  6
CONTINUOUS
 62
    7
 10
221.86856039308111
 20
132.74708784849539
 11
245.36856039308111
 21
132.74708784849539
  0
LINE
  8
_0-2_SUNPOU
  6
CONTINUOUS
 62
    7
 10
185.86856039308113
 20
153.74708784849539
 11
185.86856039308113
 21
123.74708784849538
  0
LINE
  8
_0-2_SUNPOU
  6
CONTINUOUS
 62
    7
 10
255.86856039308111
 20
153.74708784849539
 11
255.86856039308111
 21
123.74708784849538
  0
LINE
  8
_0-2_SUNPOU
  6
CONTINUOUS
 62
    7
 10
186.86856039308113
 20
124.74708784849538
 11
254.86856039308111
 21
124.74708784849538
  0
LINE
  8
_0-2_SUNPOU
  6
CONTINUOUS
 62
    7
 10
145.54401177386674
 20
200.93191593219827
 11
145.54401177386674
 21
210.93191593219827
  0
LINE
  8
_0-2_SUNPOU
  6
CONTINUOUS
 62
    7
 10
131.54401177386674
 20
209.93191593219819
 11
144.54401177386674
 21
209.93191593219819
  0
LINE
  8
_0-2_SUNPOU
  6
CONTINUOUS
 62
    7
 10
170.54401177386674
 20
200.93191593219827
 11
170.54401177386674
 21
210.93191593219827
  0
LINE
  8
_0-2_SUNPOU
  6
CONTINUOUS
 62
    7
 10
146.54401177386674
 20
209.93191593219819
 11
169.54401177386674
 21
209.93191593219819
  0
LINE
  8
_0-2_SUNPOU
  6
CONTINUOUS
 62
    7
 10
171.54401177386674
 20
209.93191593219819
 11
184.54401177386674
 21
209.93191593219819
  0
LINE
  8
_0-2_SUNPOU
  6
CONTINUOUS
 62
    7
 10
123.04401177386674
 20
200.32669468084139
 11
123.04401177386674
 21
220.93191593219827
  0
LINE
  8
_0-2_SUNPOU
  6
CONTINUOUS
 62
    7
 10
193.04401177386674
 20
200.32669468084139
 11
193.04401177386674
 21
220.93191593219827
  0
LINE
  8
_0-2_SUNPOU
  6
CONTINUOUS
 62
    7
 10
124.04401177386674
 20
219.93191593219827
 11
192.04401177386674
 21
219.93191593219827
  0
LINE
  8
_0-2_SUNPOU
  6
CONTINUOUS
 62
    7
 10
220.86856039308111
 20
237.74708784849539
 11
220.86856039308111
 21
263.74708784849536
  0
LINE
  8
_0-2_SUNPOU
  6
CONTINUOUS
 62
    7
 10
158.04401177386674
 20
238.74708784849539
 11
158.04401177386674
 21
263.74708784849536
  0
LINE
  8
_0-2_SUNPOU
  6
CONTINUOUS
 62
    7
 10
219.86856039308111
 20
262.74708784849536
 11
159.04401177386674
 21
262.74708784849536
  0
LINE
  8
_0-2_SUNPOU
  6
CONTINUOUS
 62
    7
 10
308.86856039308111
 20
265.94708784849541
 11
308.86856039308111
 21
263.74708784849536
  0
LINE
  8
_0-2_SUNPOU
  6
CONTINUOUS
 62
    7
 10
220.86856039308111
 20
237.74708784849539
 11
220.86856039308111
 21
263.74708784849536
  0
LINE
  8
_0-2_SUNPOU
  6
CONTINUOUS
 62
    7
 10
307.86856039308111
 20
262.74708784849536
 11
266.86856039308111
 21
262.74708784849536
  0
LINE
  8
_0-2_SUNPOU
  6
CONTINUOUS
 62
    7
 10
221.86856039308111
 20
262.74708784849536
 11
262.86856039308111
 21
262.74708784849536
  0
LINE
  8
_0-2_SUNPOU
  6
CONTINUOUS
 62
    7
 10
260.86856039308111
 20
172.74708784849539
 11
271.86856039308111
 21
172.74708784849539
  0
LINE
  8
_0-2_SUNPOU
  6
CONTINUOUS
 62
    7
 10
260.86856039308111
 20
167.74708784849539
 11
271.86856039308111
 21
167.74708784849539
  0
LINE
  8
_0-2_SUNPOU
  6
CONTINUOUS
 62
    7
 10
270.86856039308111
 20
171.74708784849539
 11
270.86856039308111
 21
168.74708784849539
  0
LINE
  8
_0-2_SUNPOU
  6
CONTINUOUS
 62
    7
 10
260.95747413375272
 20
157.74708784849539
 11
271.86856039308111
 21
157.74708784849539
  0
LINE
  8
_0-2_SUNPOU
  6
CONTINUOUS
 62
    7
 10
270.86856039308111
 20
166.74708784849528
 11
270.86856039308111
 21
158.74708784849539
  0
LINE
  8
_0-2_SUNPOU
  6
CONTINUOUS
 62
    7
 10
260.86856039308111
 20
152.74708784849539
 11
271.86856039308111
 21
152.74708784849539
  0
LINE
  8
_0-2_SUNPOU
  6
CONTINUOUS
 62
    7
 10
270.86856039308111
 20
156.74708784849539
 11
270.86856039308111
 21
153.74708784849539
  0
LINE
  8
_0-2_SUNPOU
  6
CONTINUOUS
 62
    7
 10
260.86856039308111
 20
172.74708784849539
 11
281.86856039308111
 21
172.74708784849539
  0
LINE
  8
_0-2_SUNPOU
  6
CONTINUOUS
 62
    7
 10
260.86856039308111
 20
152.74708784849539
 11
281.86856039308111
 21
152.74708784849539
  0
LINE
  8
_0-2_SUNPOU
  6
CONTINUOUS
 62
    7
 10
280.86856039308111
 20
171.74708784849539
 11
280.86856039308111
 21
153.74708784849539
  0
LINE
  8
_0-2_SUNPOU
  6
CONTINUOUS
 62
    7
 10
280.86856039308111
 20
196.74708784849528
 11
279.86856039308111
 21
196.74708784849528
  0
LINE
  8
_0-2_SUNPOU
  6
CONTINUOUS
 62
    7
 10
280.86856039308111
 20
173.74708784849539
 11
280.86856039308111
 21
195.74708784849528
  0
LINE
  8
_0-4_HONTAI
  6
CONTINUOUS
 62
    7
 10
153.04401177386674
 20
81.41750173019443
 11
163.04401177386674
 21
81.41750173019443
  0
LINE
  8
_0-4_HONTAI
  6
CONTINUOUS
 62
    7
 10
163.04401177386674
 20
81.41750173019443
 11
163.04401177386674
 21
82.91750173019443
  0
LINE
  8
_0-4_HONTAI
  6
CONTINUOUS
 62
    7
 10
163.04401177386674
 20
82.91750173019443
 11
153.04401177386674
 21
82.91750173019443
  0
LINE
  8
_0-4_HONTAI
  6
CONTINUOUS
 62
    7
 10
153.04401177386674
 20
82.91750173019443
 11
153.04401177386674
 21
81.41750173019443
  0
LINE
  8
_0-4_HONTAI
  6
CONTINUOUS
 62
    7
 10
46.368560393081111
 20
78.417501730194359
 11
56.368560393081111
 21
78.417501730194359
  0
LINE
  8
_0-4_HONTAI
  6
CONTINUOUS
 62
    7
 10
56.368560393081111
 20
78.417501730194359
 11
56.368560393081111
 21
79.917501730194373
  0
LINE
  8
_0-4_HONTAI
  6
CONTINUOUS
 62
    7
 10
56.368560393081111
 20
79.917501730194373
 11
46.368560393081111
 21
79.917501730194373
  0
LINE
  8
_0-4_HONTAI
  6
CONTINUOUS
 62
    7
 10
46.368560393081111
 20
79.917501730194373
 11
46.368560393081111
 21
78.417501730194359
  0
LINE
  8
_0-4_HONTAI
  6
CONTINUOUS
 62
    7
 10
45.368560393081111
 20
74.917501730194373
 11
57.368560393081111
 21
74.917501730194373
  0
LINE
  8
_0-4_HONTAI
  6
CONTINUOUS
 62
    7
 10
57.368560393081111
 20
74.917501730194373
 11
57.368560393081111
 21
76.417501730194373
  0
LINE
  8
_0-4_HONTAI
  6
CONTINUOUS
 62
    7
 10
57.368560393081111
 20
76.417501730194373
 11
45.368560393081111
 21
76.417501730194373
  0
LINE
  8
_0-4_HONTAI
  6
CONTINUOUS
 62
    7
 10
45.368560393081111
 20
76.417501730194373
 11
45.368560393081111
 21
74.917501730194373
  0
LINE
  8
_0-4_HONTAI
  6
CONTINUOUS
 62
    7
 10
45.368560393081111
 20
69.417501730194373
 11
57.368560393081111
 21
69.417501730194373
  0
LINE
  8
_0-4_HONTAI
  6
CONTINUOUS
 62
    7
 10
57.368560393081111
 20
69.417501730194373
 11
57.368560393081111
 21
70.917501730194359
  0
LINE
  8
_0-4_HONTAI
  6
CONTINUOUS
 62
    7
 10
57.368560393081111
 20
70.917501730194359
 11
45.368560393081111
 21
70.917501730194359
  0
LINE
  8
_0-4_HONTAI
  6
CONTINUOUS
 62
    7
 10
45.368560393081111
 20
70.917501730194359
 11
45.368560393081111
 21
69.417501730194373
  0
LINE
  8
_0-8_HONTAIFUKASIBU
  6
DASHED
 62
    7
 10
152.04401177386674
 20
69.417501730194373
 11
164.04401177386674
 21
69.417501730194373
  0
LINE
  8
_0-8_HONTAIFUKASIBU
  6
DASHED
 62
    7
 10
164.04401177386674
 20
69.417501730194373
 11
164.04401177386674
 21
76.417501730194373
  0
LINE
  8
_0-8_HONTAIFUKASIBU
  6
DASHED
 62
    7
 10
164.04401177386674
 20
76.417501730194373
 11
152.04401177386674
 21
76.417501730194373
  0
LINE
  8
_0-8_HONTAIFUKASIBU
  6
DASHED
 62
    7
 10
152.04401177386674
 20
76.417501730194373
 11
152.04401177386674
 21
69.417501730194373
  0
LINE
  8
_0-4_HONTAI
  6
CONTINUOUS
 62
    7
 10
212.86856039308111
 20
70.417501730194359
 11
228.86856039308111
 21
70.417501730194359
  0
LINE
  8
_0-4_HONTAI
  6
CONTINUOUS
 62
    7
 10
228.86856039308111
 20
70.417501730194359
 11
228.86856039308111
 21
70.917501730194359
  0
LINE
  8
_0-4_HONTAI
  6
CONTINUOUS
 62
    7
 10
228.86856039308111
 20
70.917501730194359
 11
212.86856039308111
 21
70.917501730194359
  0
LINE
  8
_0-4_HONTAI
  6
CONTINUOUS
 62
    7
 10
212.86856039308111
 20
70.917501730194359
 11
212.86856039308111
 21
70.417501730194359
  0
LINE
  8
_0-2_SUNPOU
  6
CONTINUOUS
 62
    7
 10
249.86856039308111
 20
72.917501730194359
 11
266.86856039308105
 21
72.917501730194359
  0
LINE
  8
_0-2_SUNPOU
  6
CONTINUOUS
 62
    7
 10
256.86856039308122
 20
101.41750173019418
 11
266.86856039308105
 21
101.41750173019418
  0
LINE
  8
_0-2_SUNPOU
  6
CONTINUOUS
 62
    7
 10
265.86856039308105
 20
73.917501730194373
 11
265.86856039308105
 21
100.41750173019418
  0
LINE
  8
_0-4_HONTAI
  6
CONTINUOUS
 62
    7
 10
212.86856039308111
 20
69.617501730194362
 11
228.86856039308111
 21
69.617501730194362
  0
LINE
  8
_0-4_HONTAI
  6
CONTINUOUS
 62
    7
 10
228.86856039308111
 20
69.617501730194362
 11
228.86856039308111
 21
70.417501730194359
  0
LINE
  8
_0-4_HONTAI
  6
CONTINUOUS
 62
    7
 10
228.86856039308111
 20
70.417501730194359
 11
212.86856039308111
 21
70.417501730194359
  0
LINE
  8
_0-4_HONTAI
  6
CONTINUOUS
 62
    7
 10
212.86856039308111
 20
70.417501730194359
 11
212.86856039308111
 21
69.617501730194362
  0
ARC
  8
_0-4_HONTAI
  6
CONTINUOUS
 62
    7
 10
220.86856039308111
 20
71.417501730194373
 40
8.4999999999999431
 50
55.439678220005447
 51
124.5603217799945
  0
LINE
  8
_0-4_HONTAI
  6
CONTINUOUS
 62
    7
 10
224.36856039308111
 20
70.617501730194362
 11
217.36856039308111
 21
70.617501730194362
  0
LINE
  8
_0-4_HONTAI
  6
CONTINUOUS
 62
    7
 10
224.36856039308111
 20
69.617501730194362
 11
217.36856039308111
 21
69.617501730194362
  0
LINE
  8
_0-2_SUNPOU
  6
CONTINUOUS
 62
    7
 10
185.54401177386674
 20
62.91750173019443
 11
185.54401177386674
 21
51.285462978940756
  0
LINE
  8
_0-2_SUNPOU
  6
CONTINUOUS
 62
    7
 10
193.04401177386674
 20
67.91750173019443
 11
193.04401177386674
 21
51.285462978940756
  0
LINE
  8
_0-2_SUNPOU
  6
CONTINUOUS
 62
    7
 10
184.54401177386674
 20
52.285462978940756
 11
183.54401177386674
 21
52.285462978940756
  0
LINE
  8
_0-2_SUNPOU
  6
CONTINUOUS
 62
    7
 10
194.04401177386674
 20
52.285462978940756
 11
195.04401177386674
 21
52.285462978940756
  0
LINE
  8
_0-2_SUNPOU
  6
CONTINUOUS
 62
    7
 10
185.54401177386674
 20
52.285462978940756
 11
193.04401177386674
 21
52.285462978940756
  0
LINE
  8
_0-2_SUNPOU
  6
CONTINUOUS
 62
    7
 10
170.54401177386674
 20
66.91750173019443
 11
170.54401177386674
 21
51.285462978940756
  0
LINE
  8
_0-2_SUNPOU
  6
CONTINUOUS
 62
    7
 10
185.54401177386674
 20
66.91750173019443
 11
185.54401177386674
 21
51.285462978940756
  0
LINE
  8
_0-2_SUNPOU
  6
CONTINUOUS
 62
    7
 10
171.54401177386674
 20
52.285462978940756
 11
184.54401177386674
 21
52.285462978940756
  0
LINE
  8
_0-2_SUNPOU
  6
CONTINUOUS
 62
    7
 10
145.54401177386674
 20
66.91750173019443
 11
145.54401177386674
 21
51.285462978940756
  0
LINE
  8
_0-2_SUNPOU
  6
CONTINUOUS
 62
    7
 10
170.54401177386674
 20
66.91750173019443
 11
170.54401177386674
 21
51.285462978940756
  0
LINE
  8
_0-2_SUNPOU
  6
CONTINUOUS
 62
    7
 10
146.54401177386674
 20
52.285462978940756
 11
169.54401177386674
 21
52.285462978940756
  0
LINE
  8
_0-2_SUNPOU
  6
CONTINUOUS
 62
    7
 10
130.54401177386674
 20
66.91750173019443
 11
130.54401177386674
 21
51.285462978940756
  0
LINE
  8
_0-2_SUNPOU
  6
CONTINUOUS
 62
    7
 10
145.54401177386674
 20
66.91750173019443
 11
145.54401177386674
 21
51.285462978940756
  0
LINE
  8
_0-2_SUNPOU
  6
CONTINUOUS
 62
    7
 10
131.54401177386674
 20
52.285462978940756
 11
144.54401177386674
 21
52.285462978940756
  0
LINE
  8
_0-2_SUNPOU
  6
CONTINUOUS
 62
    7
 10
123.04401177386674
 20
66.91750173019443
 11
123.04401177386674
 21
51.285462978940756
  0
LINE
  8
_0-2_SUNPOU
  6
CONTINUOUS
 62
    7
 10
130.54401177386674
 20
61.91750173019443
 11
130.54401177386674
 21
51.285462978940756
  0
LINE
  8
_0-2_SUNPOU
  6
CONTINUOUS
 62
    7
 10
122.04401177386674
 20
52.285462978940756
 11
121.04401177386674
 21
52.285462978940756
  0
LINE
  8
_0-2_SUNPOU
  6
CONTINUOUS
 62
    7
 10
131.54401177386674
 20
52.285462978940756
 11
132.54401177386674
 21
52.285462978940756
  0
LINE
  8
_0-2_SUNPOU
  6
CONTINUOUS
 62
    7
 10
123.04401177386674
 20
52.285462978940756
 11
130.54401177386674
 21
52.285462978940756
  0
LINE
  8
_0-2_SUNPOU
  6
CONTINUOUS
 62
    7
 10
123.04401177386674
 20
66.91750173019443
 11
123.04401177386674
 21
41.984529418564704
  0
LINE
  8
_0-2_SUNPOU
  6
CONTINUOUS
 62
    7
 10
193.04401177386674
 20
66.91750173019443
 11
193.04401177386674
 21
41.984529418564704
  0
LINE
  8
_0-2_SUNPOU
  6
CONTINUOUS
 62
    7
 10
124.04401177386674
 20
42.984529418564704
 11
192.04401177386674
 21
42.984529418564704
  0
ARC
  8
_0-4_HONTAI
  6
CONTINUOUS
 62
    7
 10
185.54401177386674
 20
72.91750173019443
 40
2.75
 50
46.658241772778282
 51
133.3417582272217
  0
ARC
  8
_0-4_HONTAI
  6
CONTINUOUS
 62
    7
 10
185.54401177386674
 20
72.91750173019443
 40
2.75
 50
226.65824177277832
 51
313.3417582272217
  0
ARC
  8
_0-4_HONTAI
  6
CONTINUOUS
 62
    7
 10
170.54401177386674
 20
72.91750173019443
 40
2.75
 50
46.658241772778282
 51
133.3417582272217
  0
ARC
  8
_0-4_HONTAI
  6
CONTINUOUS
 62
    7
 10
170.54401177386674
 20
72.91750173019443
 40
2.75
 50
226.65824177277832
 51
313.3417582272217
  0
ARC
  8
_0-4_HONTAI
  6
CONTINUOUS
 62
    7
 10
145.54401177386674
 20
72.91750173019443
 40
2.75
 50
46.658241772778282
 51
133.3417582272217
  0
ARC
  8
_0-4_HONTAI
  6
CONTINUOUS
 62
    7
 10
145.54401177386674
 20
72.91750173019443
 40
2.75
 50
226.65824177277832
 51
313.3417582272217
  0
ARC
  8
_0-4_HONTAI
  6
CONTINUOUS
 62
    7
 10
130.54401177386674
 20
72.91750173019443
 40
2.75
 50
46.658241772778282
 51
133.3417582272217
  0
ARC
  8
_0-8_HONTAIFUKASIBU
  6
DASHED
 62
    7
 10
130.54401177386674
 20
72.91750173019443
 40
2.75
 50
133.3417582272217
 51
226.65824177277829
  0
ARC
  8
_0-4_HONTAI
  6
CONTINUOUS
 62
    7
 10
130.54401177386674
 20
72.91750173019443
 40
2.75
 50
226.65824177277832
 51
313.3417582272217
  0
ARC
  8
_0-8_HONTAIFUKASIBU
  6
DASHED
 62
    7
 10
130.54401177386674
 20
72.91750173019443
 40
2.75
 50
313.3417582272217
 51
46.658241772778303
  0
LINE
  8
_0-4_HONTAI
  6
CONTINUOUS
 62
    7
 10
177.03507178480893
 20
79.41750173019443
 11
139.05295176292443
 21
79.41750173019443
  0
LINE
  8
_0-4_HONTAI
  6
CONTINUOUS
 62
    7
 10
141.04401177386674
 20
64.41750173019443
 11
175.04401177386674
 21
64.41750173019443
  0
LINE
  8
_0-4_HONTAI
  6
CONTINUOUS
 62
    7
 10
139.04082773924153
 20
66.41750173019443
 11
177.04719580849183
 21
66.41750173019443
  0
LINE
  8
_0-4_HONTAI
  6
CONTINUOUS
 62
    7
 10
139.37558575024482
 20
79.740135717514817
 11
141.05295176292443
 21
81.41750173019443
  0
LINE
  8
_0-4_HONTAI
  6
CONTINUOUS
 62
    7
 10
139.36346172656192
 20
66.094867742874029
 11
141.04082773924162
 21
64.41750173019443
  0
LINE
  8
_0-4_HONTAI
  6
CONTINUOUS
 62
    7
 10
176.72456182117142
 20
66.094867742874029
 11
175.04719580849183
 21
64.41750173019443
  0
LINE
  8
_0-4_HONTAI
  6
CONTINUOUS
 62
    7
 10
176.71243779748863
 20
79.740135717514817
 11
175.03507178480893
 21
81.41750173019443
  0
ARC
  8
_0-4_HONTAI
  6
CONTINUOUS
 62
    7
 10
133.04401177386662
 20
72.91750173019443
 40
10
 50
90
 51
270
  0
LINE
  8
_0-4_HONTAI
  6
CONTINUOUS
 62
    7
 10
133.04401177386662
 20
82.91750173019443
 11
134.66546956922832
 21
82.91750173019443
  0
LINE
  8
_0-4_HONTAI
  6
CONTINUOUS
 62
    7
 10
133.04401177386662
 20
62.91750173019443
 11
134.65334554554553
 21
62.91750173019443
  0
LINE
  8
_0-4_HONTAI
  6
CONTINUOUS
 62
    7
 10
141.05295176292443
 20
81.41750173019443
 11
175.03507178480893
 21
81.41750173019443
  0
LINE
  8
_0-4_HONTAI
  6
CONTINUOUS
 62
    7
 10
141.04082773924162
 20
64.41750173019443
 11
175.04719580849183
 21
64.41750173019443
  0
ARC
  8
_0-4_HONTAI
  6
CONTINUOUS
 62
    7
 10
139.04082773924153
 20
62.91750173019443
 40
3.5
 50
98.846575799855727
 51
167.16041159309548
  0
ARC
  8
_0-4_HONTAI
  6
CONTINUOUS
 62
    7
 10
138.65635494537542
 20
65.387760961687504
 40
1
 50
45
 51
98.846575799855713
  0
ARC
  8
_0-4_HONTAI
  6
CONTINUOUS
 62
    7
 10
134.65334554554553
 20
63.91750173019443
 40
1
 50
270
 51
347.1604115930956
  0
ARC
  8
_0-4_HONTAI
  6
CONTINUOUS
 62
    7
 10
139.05295176292443
 20
82.91750173019443
 40
3.5
 50
192.83958840690436
 51
261.15342420014417
  0
ARC
  8
_0-4_HONTAI
  6
CONTINUOUS
 62
    7
 10
138.66847896905824
 20
80.447242498701371
 40
1
 50
261.15342420014417
 51
315
  0
ARC
  8
_0-4_HONTAI
  6
CONTINUOUS
 62
    7
 10
134.66546956922832
 20
81.91750173019443
 40
1
 50
12.839588406904429
 51
90
  0
ARC
  8
_0-4_HONTAI
  6
CONTINUOUS
 62
    7
 10
183.04401177386674
 20
72.91750173019443
 40
10
 50
270
 51
90
  0
ARC
  8
_0-4_HONTAI
  6
CONTINUOUS
 62
    7
 10
177.04719580849183
 20
62.91750173019443
 40
3.5
 50
12.839588406904429
 51
81.153424200144257
  0
ARC
  8
_0-4_HONTAI
  6
CONTINUOUS
 62
    7
 10
177.43166860235803
 20
65.387760961687504
 40
1
 50
81.153424200144257
 51
135
  0
ARC
  8
_0-4_HONTAI
  6
CONTINUOUS
 62
    7
 10
181.43467800218792
 20
63.91750173019443
 40
1
 50
192.83958840690436
 51
270
  0
ARC
  8
_0-4_HONTAI
  6
CONTINUOUS
 62
    7
 10
177.03507178480893
 20
82.91750173019443
 40
3.5
 50
278.84657579985571
 51
347.1604115930956
  0
ARC
  8
_0-4_HONTAI
  6
CONTINUOUS
 62
    7
 10
177.41954457867512
 20
80.447242498701371
 40
1
 50
225
 51
278.84657579985571
  0
ARC
  8
_0-4_HONTAI
  6
CONTINUOUS
 62
    7
 10
181.42255397850502
 20
81.91750173019443
 40
1
 50
90
 51
167.16041159309631
  0
LINE
  8
_0-4_HONTAI
  6
CONTINUOUS
 62
    7
 10
183.04401177386674
 20
82.91750173019443
 11
181.42255397850502
 21
82.91750173019443
  0
LINE
  8
_0-4_HONTAI
  6
CONTINUOUS
 62
    7
 10
183.04401177386674
 20
62.91750173019443
 11
181.43467800218792
 21
62.91750173019443
  0
ARC
  8
_0-4_HONTAI
  6
CONTINUOUS
 62
    7
 10
130.54401177386674
 20
72.91750173019443
 40
4.25
 50
304.5603217799977
 51
331.92751306414692
  0
ARC
  8
_0-8_HONTAIFUKASIBU
  6
DASHED
 62
    7
 10
130.54401177386674
 20
72.91750173019443
 40
4.25
 50
331.92751306414692
 51
28.072486935853088
  0
ARC
  8
_0-4_HONTAI
  6
CONTINUOUS
 62
    7
 10
130.54401177386674
 20
72.91750173019443
 40
4.25
 50
28.07248693585306
 51
55.439678220002292
  0
ARC
  8
_0-8_HONTAIFUKASIBU
  6
DASHED
 62
    7
 10
130.54401177386674
 20
72.91750173019443
 40
4.25
 50
55.439678220002292
 51
124.56032177999769
  0
ARC
  8
_0-4_HONTAI
  6
CONTINUOUS
 62
    7
 10
130.54401177386674
 20
72.91750173019443
 40
4.25
 50
124.56032177999769
 51
151.92751306414689
  0
ARC
  8
_0-8_HONTAIFUKASIBU
  6
DASHED
 62
    7
 10
130.54401177386674
 20
72.91750173019443
 40
4.25
 50
151.92751306414689
 51
208.07248693585299
  0
ARC
  8
_0-4_HONTAI
  6
CONTINUOUS
 62
    7
 10
130.54401177386674
 20
72.91750173019443
 40
4.25
 50
208.07248693585302
 51
235.43967822000229
  0
ARC
  8
_0-8_HONTAIFUKASIBU
  6
DASHED
 62
    7
 10
130.54401177386674
 20
72.91750173019443
 40
4.25
 50
235.43967822000229
 51
304.5603217799977
  0
ARC
  8
_0-4_HONTAI
  6
CONTINUOUS
 62
    7
 10
145.54401177386674
 20
72.91750173019443
 40
4.25
 50
124.56032177999769
 51
151.92751306414689
  0
ARC
  8
_0-4_HONTAI
  6
CONTINUOUS
 62
    7
 10
145.54401177386674
 20
72.91750173019443
 40
4.25
 50
208.07248693585302
 51
235.43967822000229
  0
ARC
  8
_0-4_HONTAI
  6
CONTINUOUS
 62
    7
 10
145.54401177386674
 20
72.91750173019443
 40
4.25
 50
304.5603217799977
 51
331.92751306414692
  0
ARC
  8
_0-4_HONTAI
  6
CONTINUOUS
 62
    7
 10
145.54401177386674
 20
72.91750173019443
 40
4.25
 50
28.07248693585306
 51
55.439678220002292
  0
ARC
  8
_0-4_HONTAI
  6
CONTINUOUS
 62
    7
 10
170.54401177386674
 20
72.917501730194416
 40
4.2500000000000133
 50
28.07248693585306
 51
151.92751306414689
  0
ARC
  8
_0-4_HONTAI
  6
CONTINUOUS
 62
    7
 10
170.54401177386674
 20
72.917501730194445
 40
4.2500000000000026
 50
208.07248693585302
 51
331.92751306414697
  0
ARC
  8
_0-4_HONTAI
  6
CONTINUOUS
 62
    7
 10
185.54401177386674
 20
72.917501730194402
 40
4.2500000000000097
 50
28.07248693585306
 51
151.92751306414689
  0
ARC
  8
_0-4_HONTAI
  6
CONTINUOUS
 62
    7
 10
185.54401177386674
 20
72.917501730194445
 40
4.2500000000000079
 50
208.07248693585302
 51
328.85175157461929
  0
ARC
  8
_0-8_HONTAIFUKASIBU
  6
DASHED
 62
    7
 10
145.54401177386674
 20
72.91750173019443
 40
2.75
 50
133.3417582272217
 51
226.65824177277829
  0
ARC
  8
_0-8_HONTAIFUKASIBU
  6
DASHED
 62
    7
 10
145.54401177386674
 20
72.91750173019443
 40
2.75
 50
313.3417582272217
 51
46.658241772778303
  0
ARC
  8
_0-8_HONTAIFUKASIBU
  6
DASHED
 62
    7
 10
145.54401177386674
 20
72.91750173019443
 40
4.25
 50
331.92751306414692
 51
28.072486935853088
  0
ARC
  8
_0-8_HONTAIFUKASIBU
  6
DASHED
 62
    7
 10
145.54401177386674
 20
72.91750173019443
 40
4.25
 50
55.439678220002292
 51
124.56032177999769
  0
ARC
  8
_0-8_HONTAIFUKASIBU
  6
DASHED
 62
    7
 10
145.54401177386674
 20
72.91750173019443
 40
4.25
 50
151.92751306414689
 51
208.07248693585299
  0
ARC
  8
_0-8_HONTAIFUKASIBU
  6
DASHED
 62
    7
 10
145.54401177386674
 20
72.91750173019443
 40
4.25
 50
235.43967822000229
 51
304.5603217799977
  0
ARC
  8
_0-8_HONTAIFUKASIBU
  6
DASHED
 62
    7
 10
170.54401177386674
 20
72.91750173019443
 40
2.75
 50
133.3417582272217
 51
226.65824177277829
  0
ARC
  8
_0-8_HONTAIFUKASIBU
  6
DASHED
 62
    7
 10
170.54401177386674
 20
72.91750173019443
 40
2.75
 50
313.3417582272217
 51
46.658241772778303
  0
ARC
  8
_0-8_HONTAIFUKASIBU
  6
DASHED
 62
    7
 10
170.54401177386674
 20
72.91750173019443
 40
4.25
 50
331.92751306414692
 51
28.072486935853088
  0
ARC
  8
_0-8_HONTAIFUKASIBU
  6
DASHED
 62
    7
 10
170.54401177386674
 20
72.91750173019443
 40
4.25
 50
151.92751306414689
 51
208.07248693585299
  0
ARC
  8
_0-8_HONTAIFUKASIBU
  6
DASHED
 62
    7
 10
185.54401177386674
 20
72.91750173019443
 40
2.75
 50
133.3417582272217
 51
226.65824177277829
  0
ARC
  8
_0-8_HONTAIFUKASIBU
  6
DASHED
 62
    7
 10
185.54401177386674
 20
72.91750173019443
 40
2.75
 50
313.3417582272217
 51
46.658241772778303
  0
ARC
  8
_0-8_HONTAIFUKASIBU
  6
DASHED
 62
    7
 10
185.54401177386674
 20
72.91750173019443
 40
4.25
 50
331.92751306414692
 51
28.072486935853088
  0
ARC
  8
_0-8_HONTAIFUKASIBU
  6
DASHED
 62
    7
 10
185.54401177386674
 20
72.91750173019443
 40
4.25
 50
151.92751306414689
 51
208.07248693585299
  0
LINE
  8
_0-4_HONTAI
  6
CONTINUOUS
 62
    7
 10
234.32577430766872
 20
101.41750173019418
 11
255.86856039308111
 21
101.41750173019418
  0
LINE
  8
_0-4_HONTAI
  6
CONTINUOUS
 62
    7
 10
234.32577430766872
 20
99.41750173019426
 11
255.86856039308111
 21
99.41750173019426
  0
ARC
  8
_0-4_HONTAI
  6
CONTINUOUS
 62
    7
 10
234.32577430766872
 20
97.41750173019426
 40
2
 50
90
 51
175.6489220484263
  0
LINE
  8
_0-4_HONTAI
  6
CONTINUOUS
 62
    7
 10
185.86856039308122
 20
101.41750173019418
 11
185.86856039308122
 21
99.41750173019426
  0
LINE
  8
_0-4_HONTAI
  6
CONTINUOUS
 62
    7
 10
185.86856039308122
 20
99.41750173019426
 11
207.41134647849355
 21
99.41750173019426
  0
ARC
  8
_0-4_HONTAI
  6
CONTINUOUS
 62
    7
 10
207.41134647849355
 20
97.41750173019426
 40
2
 50
4.3510779515737061
 51
90.000000000000014
  0
LINE
  8
_0-4_HONTAI
  6
CONTINUOUS
 62
    7
 10
185.86856039308122
 20
101.41750173019418
 11
207.41134647849355
 21
101.41750173019418
  0
LINE
  8
_0-4_HONTAI
  6
CONTINUOUS
 62
    7
 10
255.86856039308111
 20
101.41750173019418
 11
255.86856039308111
 21
99.41750173019426
  0
LINE
  8
_0-4_HONTAI
  6
CONTINUOUS
 62
    7
 10
227.01495343578733
 20
76.41750173019426
 11
214.72216735037494
 21
76.41750173019426
  0
LINE
  8
_0-4_HONTAI
  6
CONTINUOUS
 62
    7
 10
229.00918922652323
 20
80.265766398290438
 11
230.33730272619692
 21
97.72097239400189
  0
ARC
  8
_0-4_HONTAI
  6
CONTINUOUS
 62
    7
 10
234.32577430766872
 20
97.41750173019426
 40
4
 50
90
 51
175.6489220484263
  0
LINE
  8
_0-4_HONTAI
  6
CONTINUOUS
 62
    7
 10
231.00342501725913
 20
80.114031066386601
 11
232.33153851693282
 21
97.569237062098082
  0
ARC
  8
_0-4_HONTAI
  6
CONTINUOUS
 62
    7
 10
227.01495343578733
 20
80.41750173019426
 40
4
 50
270
 51
355.6489220484263
  0
LINE
  8
_0-4_HONTAI
  6
CONTINUOUS
 62
    7
 10
212.72793155963904
 20
80.265766398290438
 11
211.39981805996535
 21
97.72097239400189
  0
ARC
  8
_0-4_HONTAI
  6
CONTINUOUS
 62
    7
 10
207.41134647849355
 20
97.41750173019426
 40
4
 50
4.3510779515737061
 51
90.000000000000014
  0
LINE
  8
_0-4_HONTAI
  6
CONTINUOUS
 62
    7
 10
210.73369576890314
 20
80.114031066386601
 11
209.40558226922945
 21
97.569237062098082
  0
ARC
  8
_0-4_HONTAI
  6
CONTINUOUS
 62
    7
 10
214.72216735037494
 20
80.41750173019426
 40
4
 50
184.35107795157369
 51
270
  0
LINE
  8
_0-4_HONTAI
  6
CONTINUOUS
 62
    7
 10
227.01495343578733
 20
78.41750173019426
 11
214.72216735037494
 21
78.41750173019426
  0
ARC
  8
_0-4_HONTAI
  6
CONTINUOUS
 62
    7
 10
227.01495343578733
 20
80.41750173019426
 40
2
 50
270
 51
355.6489220484263
  0
ARC
  8
_0-4_HONTAI
  6
CONTINUOUS
 62
    7
 10
214.72216735037494
 20
80.41750173019426
 40
2
 50
184.35107795157369
 51
270
  0
LINE
  8
_0-4_HONTAI
  6
CONTINUOUS
 62
    7
 10
229.8867716627854
 20
76.41750173019426
 11
211.85034912337681
 21
76.41750173019426
  0
LINE
  8
_0-4_HONTAI
  6
CONTINUOUS
 62
    7
 10
233.86856039308111
 20
80.18857324994218
 11
234.88027146694224
 21
97.633620091731103
  0
ARC
  8
_0-4_HONTAI
  6
CONTINUOUS
 62
    7
 10
229.8751167975198
 20
80.41750173019426
 40
4
 50
270
 51
356.7190482679677
  0
ARC
  8
_0-4_HONTAI
  6
CONTINUOUS
 62
    7
 10
236.86856039308111
 20
97.41750173019426
 40
2
 50
90
 51
173.79655209830804
  0
LINE
  8
_0-4_HONTAI
  6
CONTINUOUS
 62
    7
 10
207.86856039308111
 20
80.189241377719341
 11
206.85684931922003
 21
97.633620091731103
  0
ARC
  8
_0-4_HONTAI
  6
CONTINUOUS
 62
    7
 10
211.86200398864241
 20
80.41816985797142
 40
4
 50
183.28095173203229
 51
270
  0
ARC
  8
_0-4_HONTAI
  6
CONTINUOUS
 62
    7
 10
204.86856039308122
 20
97.41750173019426
 40
2
 50
6.2034479016919412
 51
90
  0
LINE
  8
_0-5_CENTER
  6
DASHED
 62
    7
 10
241.36856039308111
 20
105.41750173019418
 11
241.36856039308111
 21
95.41750173019426
  0
LINE
  8
_0-5_CENTER
  6
DASHED
 62
    7
 10
195.36856039308113
 20
95.41750173019426
 11
195.36856039308113
 21
105.41750173019418
  0
LINE
  8
_0-8_HONTAIFUKASIBU
  6
DASHED
 62
    7
 10
249.36856039308111
 20
99.41750173019426
 11
249.11856039308111
 21
99.667501730194246
  0
LINE
  8
_0-8_HONTAIFUKASIBU
  6
DASHED
 62
    7
 10
203.11856039308111
 20
99.66750173019426
 11
203.36856039308111
 21
99.41750173019426
  0
LINE
  8
_0-8_HONTAIFUKASIBU
  6
DASHED
 62
    7
 10
249.11856039308111
 20
99.667501730194246
 11
249.11856039308111
 21
101.41750173019418
  0
LINE
  8
_0-8_HONTAIFUKASIBU
  6
DASHED
 62
    7
 10
203.11856039308111
 20
101.41750173019418
 11
203.11856039308111
 21
99.66750173019426
  0
LINE
  8
_0-8_HONTAIFUKASIBU
  6
DASHED
 62
    7
 10
243.36856039308111
 20
99.41750173019426
 11
243.61856039308111
 21
99.66750173019426
  0
LINE
  8
_0-8_HONTAIFUKASIBU
  6
DASHED
 62
    7
 10
197.61856039308111
 20
99.66750173019426
 11
197.36856039308111
 21
99.41750173019426
  0
LINE
  8
_0-8_HONTAIFUKASIBU
  6
DASHED
 62
    7
 10
243.61856039308111
 20
99.66750173019426
 11
243.61856039308111
 21
101.41750173019418
  0
LINE
  8
_0-8_HONTAIFUKASIBU
  6
DASHED
 62
    7
 10
197.61856039308111
 20
101.41750173019418
 11
197.61856039308111
 21
99.66750173019426
  0
LINE
  8
_0-5_CENTER
  6
CENTER
 62
    7
 10
200.36856039308111
 20
95.41750173019426
 11
200.36856039308111
 21
105.41750173019418
  0
LINE
  8
_0-5_CENTER
  6
CENTER
 62
    7
 10
246.36856039308122
 20
95.41750173019426
 11
246.36856039308122
 21
105.41750173019418
  0
LINE
  8
_0-8_HONTAIFUKASIBU
  6
DASHED
 62
    7
 10
223.86856039308111
 20
78.41750173019426
 11
223.86856039308111
 21
76.41750173019426
  0
LINE
  8
_0-8_HONTAIFUKASIBU
  6
DASHED
 62
    7
 10
217.86856039308111
 20
76.41750173019426
 11
217.86856039308111
 21
78.41750173019426
  0
LINE
  8
_0-5_CENTER
  6
CENTER
 62
    7
 10
152.04401177386674
 20
177.74708784849539
 11
164.04401177386674
 21
177.74708784849539
  0
LINE
  8
_0-5_CENTER
  6
CENTER
 62
    7
 10
158.04401177386674
 20
171.74708784849539
 11
158.04401177386674
 21
183.74708784849539
  0
LINE
  8
_0-5_CENTER
  6
CENTER
 62
    7
 10
45.368560393081224
 20
150.90778695026608
 11
57.368560393081338
 21
150.90778695026608
  0
LINE
  8
_0-5_CENTER
  6
CENTER
 62
    7
 10
51.368560393081338
 20
144.90778695026608
 11
51.368560393081338
 21
156.90778695026608
  0
LINE
  8
_0-2_SUNPOU
  6
CONTINUOUS
 62
    7
 10
49.660604881375832
 20
157.69622476540709
 11
45.172516573939731
 21
175.53457487176589
  0
LINE
  8
_0-2_SUNPOU
  6
CONTINUOUS
 62
    7
 10
156.31844042054942
 20
184.60554156541107
 11
151.84796795472453
 21
202.37387576999768
  0
LINE
  8
_0-2_SUNPOU
  6
CONTINUOUS
 62
    7
 10
46.386287049203531
 20
174.80879168556089
 11
151.12218476851941
 21
201.16010529473388
  0
ARC
  8
_0-4_HONTAI
  6
CONTINUOUS
 62
    7
 10
51.368560393081111
 20
150.90778695026639
 40
9.5
 50
104.1223690571077
 51
284.12236905710767
  0
ARC
  8
_0-4_HONTAI
  6
CONTINUOUS
 62
    7
 10
158.04401177386674
 20
177.74708784849539
 40
9.5
 50
284.12236905710767
 51
347.4204042526029
  0
ARC
  8
_0-8_HONTAIFUKASIBU
  6
DASHED
 62
    7
 10
158.04401177386674
 20
177.74708784849539
 40
9.5
 50
347.4204042526029
 51
104.12236905710769
  0
LINE
  8
_0-4_HONTAI
  6
CONTINUOUS
 62
    7
 10
49.050620770052319
 20
160.12066684224328
 11
143.99278860902632
 21
184.00790029265047
  0
LINE
  8
_0-8_HONTAIFUKASIBU
  6
DASHED
 62
    7
 10
143.99278860902632
 20
184.00790029265047
 11
155.72607215083783
 21
186.95996774047227
  0
LINE
  8
_0-4_HONTAI
  6
CONTINUOUS
 62
    7
 10
53.686500016110016
 20
141.69490705828937
 11
160.36195139689553
 21
168.53420795651837
  0
CIRCLE
  8
_0-8_HONTAIFUKASIBU
  6
DASHED
 62
    7
 10
51.368560393081111
 20
150.90778695026639
 40
3
  0
CIRCLE
  8
_0-8_HONTAIFUKASIBU
  6
DASHED
 62
    7
 10
158.04401177386674
 20
177.74708784849539
 40
3
  0
LINE
  8
_0-4_HONTAI
  6
CONTINUOUS
 62
    7
 10
177.86856039308133
 20
141.90778695026639
 11
54.532612165328941
 21
141.90778695026639
  0
LINE
  8
_0-8_HONTAIFUKASIBU
  6
DASHED
 62
    7
 10
54.532612165328941
 20
141.90778695026639
 11
50.183687914794433
 21
141.90778695026639
  0
LINE
  8
_0-4_HONTAI
  6
CONTINUOUS
 62
    7
 10
175.49881543650832
 20
159.90778695026639
 11
126.07538938352541
 21
159.90778695026639
  0
LINE
  8
_0-8_HONTAIFUKASIBU
  6
DASHED
 62
    7
 10
126.07538938352541
 20
159.90778695026639
 11
52.553432871367817
 21
159.90778695026639
  0
LINE
  8
_0-8_HONTAIFUKASIBU
  6
DASHED
 62
    7
 10
50.183687914794433
 20
141.90778695026639
 11
46.101440275559326
 21
143.00162190850329
  0
LINE
  8
_0-4_HONTAI
  6
CONTINUOUS
 62
    7
 10
46.101440275559326
 20
143.00162190850329
 11
-3.5708554211990986
 21
156.31127342664959
  0
LINE
  8
_0-4_HONTAI
  6
CONTINUOUS
 62
    7
 10
1.8457621545722986
 20
161.07155220397399
 11
-2.0179411505839652
 21
162.10682838438398
  0
CIRCLE
  8
_0-8_HONTAIFUKASIBU
  6
DASHED
 62
    7
 10
51.368560393081224
 20
150.90778695026639
 40
3.25
  0
CIRCLE
  8
_0-4_HONTAI
  6
CONTINUOUS
 62
    7
 10
220.86856039308111
 20
162.74708784849528
 40
4.5
  0
CIRCLE
  8
_0-4_HONTAI
  6
CONTINUOUS
 62
    7
 10
12.731527341518358
 20
161.26054875436727
 40
3.5
  0
ARC
  8
_0-4_HONTAI
  6
CONTINUOUS
 62
    7
 10
14.213329205348713
 20
160.86350114161089
 40
9.0000000000000142
 50
74.999999999998848
 51
165.00000000000238
  0
ARC
  8
_0-4_HONTAI
  6
CONTINUOUS
 62
    7
 10
-2.794398285891475
 20
159.20905090551687
 40
3.0000000000000439
 50
74.999999999998848
 51
254.9999999999988
  0
ARC
  8
_0-4_HONTAI
  6
CONTINUOUS
 62
    7
 10
2.6222192898798084
 20
163.96932968284107
 40
3
 50
254.9999999999988
 51
345.00000000000238
  0
LINE
  8
_0-4_HONTAI
  6
CONTINUOUS
 62
    7
 10
177.86856039308133
 20
141.90778695026639
 11
218.32138206379875
 21
152.74708784849539
  0
LINE
  8
_0-8_HONTAIFUKASIBU
  6
DASHED
 62
    7
 10
218.32138206379875
 20
152.74708784849539
 11
223.19793179900381
 21
154.05375541189377
  0
LINE
  8
_0-4_HONTAI
  6
CONTINUOUS
 62
    7
 10
175.49881543650832
 20
159.90778695026639
 11
185.86874453897712
 21
162.68640107884087
  0
LINE
  8
_0-8_HONTAIFUKASIBU
  6
DASHED
 62
    7
 10
185.86874453897712
 20
162.68640107884087
 11
218.53918898715852
 21
171.44042028509687
  0
ARC
  8
_0-8_HONTAIFUKASIBU
  6
DASHED
 62
    7
 10
220.86856039308111
 20
162.74708784849528
 40
9
 50
285.00000000000119
 51
105.00000000000108
  0
CIRCLE
  8
_0-4_HONTAI
  6
CONTINUOUS
 62
    7
 10
12.731527341518358
 20
161.26054875436727
 40
4.5
  0
LINE
  8
_0-4_HONTAI
  6
CONTINUOUS
 62
    7
 10
16.542700611271442
 20
169.55683357821257
 11
50.447406617936621
 21
160.47209498411197
  0
LINE
  8
_0-8_HONTAIFUKASIBU
  6
DASHED
 62
    7
 10
50.447406617936621
 20
160.47209498411197
 11
52.553432871367817
 21
159.90778695026639
  0
LINE
  8
_0-2_SUNPOU
  6
CONTINUOUS
 62
    7
 10
51.368560393081224
 20
143.90778695026688
 11
51.368560393081224
 21
115.90778695026638
  0
LINE
  8
_0-2_SUNPOU
  6
CONTINUOUS
 62
    7
 10
220.86856039308111
 20
155.74708784849539
 11
220.86856039308111
 21
115.90778695026638
  0
LINE
  8
_0-2_SUNPOU
  6
CONTINUOUS
 62
    7
 10
52.368560393081224
 20
116.90778695026638
 11
219.86856039308111
 21
116.90778695026638
  0
LINE
  8
_0-5_CENTER
  6
CENTER
 62
    7
 10
252.36856039308111
 20
167.74708784849548
 11
240.36856039308111
 21
167.74708784849548
  0
LINE
  8
_0-5_CENTER
  6
CENTER
 62
    7
 10
246.36856039308111
 20
173.74708784849548
 11
246.36856039308111
 21
161.74708784849548
  0
LINE
  8
_0-5_CENTER
  6
CENTER
 62
    7
 10
247.36856039308111
 20
157.74708784849539
 11
235.36856039308111
 21
157.74708784849539
  0
LINE
  8
_0-5_CENTER
  6
CENTER
 62
    7
 10
241.36856039308111
 20
163.74708784849528
 11
241.36856039308111
 21
151.74708784849539
  0
LINE
  8
_0-5_CENTER
  6
CENTER
 62
    7
 10
201.36856039308111
 20
157.74708784849539
 11
189.36856039308113
 21
157.74708784849539
  0
LINE
  8
_0-5_CENTER
  6
CENTER
 62
    7
 10
195.36856039308113
 20
163.74708784849528
 11
195.36856039308113
 21
151.74708784849539
  0
LINE
  8
_0-5_CENTER
  6
CENTER
 62
    7
 10
206.36856039308111
 20
167.74708784849539
 11
194.36856039308113
 21
167.74708784849539
  0
LINE
  8
_0-5_CENTER
  6
CENTER
 62
    7
 10
200.36856039308111
 20
173.74708784849539
 11
200.36856039308111
 21
161.74708784849539
  0
LINE
  8
_0-5_CENTER
  6
CENTER
 62
    7
 10
226.86856039308111
 20
162.74708784849528
 11
214.86856039308111
 21
162.74708784849528
  0
LINE
  8
_0-5_CENTER
  6
CENTER
 62
    7
 10
220.86856039308111
 20
168.74708784849539
 11
220.86856039308111
 21
156.74708784849539
  0
LINE
  8
_0-4_HONTAI
  6
CONTINUOUS
 62
    7
 10
123.04401177386674
 20
232.74708784849539
 11
193.04401177386674
 21
232.74708784849539
  0
LINE
  8
_0-4_HONTAI
  6
CONTINUOUS
 62
    7
 10
193.04401177386674
 20
232.74708784849539
 11
193.04401177386674
 21
233.74708784849539
  0
LINE
  8
_0-4_HONTAI
  6
CONTINUOUS
 62
    7
 10
193.04401177386674
 20
233.74708784849539
 11
123.04401177386674
 21
233.74708784849539
  0
LINE
  8
_0-4_HONTAI
  6
CONTINUOUS
 62
    7
 10
123.04401177386674
 20
233.74708784849539
 11
123.04401177386674
 21
232.74708784849539
  0
CIRCLE
  8
_0-4_HONTAI
  6
CONTINUOUS
 62
    7
 10
200.36856039308111
 20
167.74708784849539
 40
2.75
  0
CIRCLE
  8
_0-4_HONTAI
  6
CONTINUOUS
 62
    7
 10
195.36856039308113
 20
157.74708784849539
 40
2.75
  0
CIRCLE
  8
_0-4_HONTAI
  6
CONTINUOUS
 62
    7
 10
241.36856039308111
 20
157.74708784849539
 40
2.75
  0
ARC
  8
_0-4_HONTAI
  6
CONTINUOUS
 62
    7
 10
245.86856039308111
 20
162.74708784849528
 40
10
 50
270
 51
90
  0
ARC
  8
_0-4_HONTAI
  6
CONTINUOUS
 62
    7
 10
195.86856039308111
 20
162.74708784849528
 40
10
 50
90
 51
270
  0
CIRCLE
  8
_0-4_HONTAI
  6
CONTINUOUS
 62
    7
 10
246.36856039308111
 20
167.74708784849548
 40
2.75
  0
LINE
  8
_0-4_HONTAI
  6
CONTINUOUS
 62
    7
 10
195.86856039308111
 20
172.74708784849539
 11
245.86856039308111
 21
172.74708784849539
  0
LINE
  8
_0-4_HONTAI
  6
CONTINUOUS
 62
    7
 10
195.86856039308111
 20
152.74708784849539
 11
245.86856039308111
 21
152.74708784849539
  0
CIRCLE
  8
_0-4_HONTAI
  6
CONTINUOUS
 62
    7
 10
220.86856039308111
 20
162.74708784849528
 40
3.149999999999999
  0
ARC
  8
_0-0_0
  6
CONTINUOUS
 62
    7
 10
211.36856039308111
 20
171.62120752314478
 40
2.5
 50
316.95092019976351
 51
0
  0
ARC
  8
_0-0_0
  6
CONTINUOUS
 62
    7
 10
211.36856039308111
 20
153.87296817384589
 40
2.5
 50
0
 51
43.049079800236512
  0
ARC
  8
_0-4_HONTAI
  6
CONTINUOUS
 62
    7
 10
220.86856039308111
 20
162.74708784849528
 40
10.5
 50
136.95092019976348
 51
223.04907980023654
  0
ARC
  8
_0-0_0
  6
CONTINUOUS
 62
    7
 10
220.86856039308111
 20
162.74708784849528
 40
15
 50
141.37516712694699
 51
218.624832873053
  0
ARC
  8
_0-0_0
  6
CONTINUOUS
 62
    7
 10
208.36856039308111
 20
152.75959567077629
 40
1
 50
0
 51
38.624832873053009
  0
ARC
  8
_0-0_0
  6
CONTINUOUS
 62
    7
 10
208.36856039308111
 20
172.73458002621438
 40
1
 50
321.37516712694701
 51
0.000000000000019
  0
LINE
  8
_0-0_0
  6
CONTINUOUS
 62
    7
 10
209.36856039308111
 20
152.74708784849539
 11
209.36856039308111
 21
152.75959567077629
  0
LINE
  8
_0-0_0
  6
CONTINUOUS
 62
    7
 10
213.86856039308111
 20
171.62120752314478
 11
213.86856039308111
 21
172.74708784849539
  0
LINE
  8
_0-0_0
  6
CONTINUOUS
 62
    7
 10
209.36856039308111
 20
172.73458002621438
 11
209.36856039308111
 21
172.74708784849539
  0
LINE
  8
_0-0_0
  6
CONTINUOUS
 62
    7
 10
213.86856039308111
 20
153.87296817384589
 11
213.86856039308111
 21
152.74708784849539
  0
ARC
  8
_0-4_HONTAI
  6
CONTINUOUS
 62
    7
 10
220.86856039308111
 20
162.74708784849528
 40
10.5
 50
316.95092019976351
 51
43.049079800236476
  0
ARC
  8
_0-0_0
  6
CONTINUOUS
 62
    7
 10
230.36856039308111
 20
171.62120752314478
 40
2.5
 50
180
 51
223.04907980023651
  0
ARC
  8
_0-0_0
  6
CONTINUOUS
 62
    7
 10
230.36856039308111
 20
153.87296817384589
 40
2.5
 50
136.95092019976348
 51
180
  0
ARC
  8
_0-0_0
  6
CONTINUOUS
 62
    7
 10
220.86856039308111
 20
162.74708784849528
 40
15
 50
321.37516712694701
 51
38.624832873052994
  0
ARC
  8
_0-0_0
  6
CONTINUOUS
 62
    7
 10
233.36856039308111
 20
152.75959567077629
 40
1
 50
141.37516712694699
 51
180
  0
ARC
  8
_0-0_0
  6
CONTINUOUS
 62
    7
 10
233.36856039308111
 20
172.73458002621438
 40
1
 50
180
 51
218.624832873053
  0
LINE
  8
_0-0_0
  6
CONTINUOUS
 62
    7
 10
232.36856039308111
 20
152.74708784849539
 11
232.36856039308111
 21
152.75959567077629
  0
LINE
  8
_0-0_0
  6
CONTINUOUS
 62
    7
 10
227.86856039308111
 20
171.62120752314478
 11
227.86856039308111
 21
172.74708784849539
  0
LINE
  8
_0-0_0
  6
CONTINUOUS
 62
    7
 10
232.36856039308111
 20
172.73458002621438
 11
232.36856039308111
 21
172.74708784849539
  0
LINE
  8
_0-0_0
  6
CONTINUOUS
 62
    7
 10
227.86856039308111
 20
153.87296817384589
 11
227.86856039308111
 21
152.74708784849539
  0
CIRCLE
  8
_0-8_HONTAIFUKASIBU
  6
DASHED
 62
    7
 10
195.36856039308113
 20
157.74708784849539
 40
4
  0
CIRCLE
  8
_0-8_HONTAIFUKASIBU
  6
DASHED
 62
    7
 10
200.36856039308111
 20
167.74708784849539
 40
4
  0
CIRCLE
  8
_0-8_HONTAIFUKASIBU
  6
DASHED
 62
    7
 10
241.36856039308111
 20
157.74708784849539
 40
4
  0
CIRCLE
  8
_0-8_HONTAIFUKASIBU
  6
DASHED
 62
    7
 10
246.36856039308111
 20
167.74708784849548
 40
4
  0
LINE
  8
_0-8_HONTAIFUKASIBU
  6
DASHED
 62
    7
 10
138.04401177386662
 20
194.74708784849539
 11
176.04401177386674
 21
194.74708784849539
  0
LINE
  8
_0-4_HONTAI
  6
CONTINUOUS
 62
    7
 10
193.04401177386674
 20
194.74708784849539
 11
176.04401177386674
 21
194.74708784849539
  0
LINE
  8
_0-4_HONTAI
  6
CONTINUOUS
 62
    7
 10
123.04401177386674
 20
194.74708784849539
 11
138.04401177386662
 21
194.74708784849539
  0
LINE
  8
_0-4_HONTAI
  6
CONTINUOUS
 62
    7
 10
123.04401177386674
 20
196.74708784849528
 11
123.04401177386674
 21
194.74708784849539
  0
LINE
  8
_0-4_HONTAI
  6
CONTINUOUS
 62
    7
 10
193.04401177386674
 20
196.74708784849528
 11
193.04401177386674
 21
194.74708784849539
  0
LINE
  8
_0-8_HONTAIFUKASIBU
  6
HIDDEN2
 62
    7
 10
187.54401177386674
 20
196.74708784849528
 11
189.54401177386674
 21
194.74708784849539
  0
LINE
  8
_0-8_HONTAIFUKASIBU
  6
HIDDEN2
 62
    7
 10
183.54401177386674
 20
196.74708784849528
 11
181.54401177386674
 21
194.74708784849539
  0
LINE
  8
_0-8_HONTAIFUKASIBU
  6
HIDDEN2
 62
    7
 10
132.54401177386674
 20
196.74708784849528
 11
134.54401177386674
 21
194.74708784849539
  0
LINE
  8
_0-8_HONTAIFUKASIBU
  6
HIDDEN2
 62
    7
 10
128.54401177386674
 20
196.74708784849528
 11
126.54401177386674
 21
194.74708784849539
  0
CIRCLE
  8
_0-8_HONTAIFUKASIBU
  6
DASHED
 62
    7
 10
158.04401177386674
 20
177.74708784849539
 40
3
  0
LINE
  8
_0-4_HONTAI
  6
CONTINUOUS
 62
    7
 10
123.04401177386674
 20
196.74708784849528
 11
193.04401177386674
 21
196.74708784849528
  0
ARC
  8
_0-4_HONTAI
  6
CONTINUOUS
 62
    7
 10
158.04401177386674
 20
178.24708784849539
 40
9.5
 50
208.98346012980999
 51
335.40606990156391
  0
LINE
  8
_0-4_HONTAI
  6
CONTINUOUS
 62
    7
 10
176.42499336474674
 20
195.57945677982039
 11
166.68217371789992
 21
174.29333542470149
  0
ARC
  8
_0-4_HONTAI
  6
CONTINUOUS
 62
    7
 10
178.24355377401693
 20
194.74708784849539
 40
2
 50
90
 51
155.40606990156391
  0
LINE
  8
_0-4_HONTAI
  6
CONTINUOUS
 62
    7
 10
137.50718863896022
 20
195.71620208656929
 11
149.73379535341453
 21
173.64379521764428
  0
ARC
  8
_0-4_HONTAI
  6
CONTINUOUS
 62
    7
 10
135.75766939254921
 20
194.74708784849539
 40
2
 50
28.983460129810058
 51
90
  0
LINE
  8
_0-8_HONTAIFUKASIBU
  6
HIDDEN2
 62
    7
 10
172.54401177386674
 20
196.74708784849528
 11
174.54401177386674
 21
194.74708784849539
  0
LINE
  8
_0-8_HONTAIFUKASIBU
  6
HIDDEN2
 62
    7
 10
168.54401177386674
 20
196.74708784849528
 11
166.54401177386674
 21
194.74708784849539
  0
LINE
  8
_0-8_HONTAIFUKASIBU
  6
HIDDEN2
 62
    7
 10
147.54401177386674
 20
196.74708784849528
 11
149.54401177386674
 21
194.74708784849539
  0
LINE
  8
_0-8_HONTAIFUKASIBU
  6
HIDDEN2
 62
    7
 10
143.54401177386674
 20
196.74708784849528
 11
141.54401177386674
 21
194.74708784849539
  0
LINE
  8
_0-3_TEXT
  6
CONTINUOUS
 62
    7
 10
313.06471281578774
 20
253.76503704092647
 11
315.06471281578774
 21
253.76503704092647
  0
SOLID
  8
_0-3_TEXT
  6
CONTINUOUS
 62
    7
 10
310.28590757004832
 20
249.19699753225299
 11
308.86856039308111
 21
247.74708784849539
 12
309.73905323061524
 22
249.57830420133657
 13
309.73905323061524
 23
249.57830420133657
  0
LINE
  8
_0-2_SUNPOU
  6
CONTINUOUS
 62
    7
 10
64.116020392235327
 20
66.441761378269518
 11
64.116020392235327
 21
65.441761378269518
  0
LINE
  8
_0-2_SUNPOU
  6
CONTINUOUS
 62
    7
 10
64.116020392235327
 20
70.441761378269518
 11
64.116020392235327
 21
71.441761378269518
  0
LINE
  8
_0-2_SUNPOU
  6
CONTINUOUS
 62
    7
 10
64.116020392235327
 20
67.441761378269518
 11
64.116020392235327
 21
69.441761378269518
  0
LINE
  8
_0-2_SUNPOU
  6
CONTINUOUS
 62
    7
 10
64.821562926921927
 20
76.417501730194373
 11
65.116020392235327
 21
76.417501730194373
  0
LINE
  8
_0-2_SUNPOU
  6
CONTINUOUS
 62
    7
 10
64.821562926921927
 20
78.417501730194359
 11
65.116020392235327
 21
78.417501730194359
  0
LINE
  8
_0-2_SUNPOU
  6
CONTINUOUS
 62
    7
 10
64.116020392235327
 20
75.417501730194359
 11
64.116020392235327
 21
74.417501730194373
  0
LINE
  8
_0-2_SUNPOU
  6
CONTINUOUS
 62
    7
 10
64.116020392235327
 20
79.417501730194373
 11
64.116020392235327
 21
80.417501730194373
  0
LINE
  8
_0-2_SUNPOU
  6
CONTINUOUS
 62
    7
 10
64.116020392235327
 20
76.417501730194373
 11
64.116020392235327
 21
78.417501730194359
  0
LINE
  8
_0-2_SUNPOU
  6
CONTINUOUS
 62
    7
 10
186.43467800218792
 20
62.91750173019443
 11
276.86856039308105
 21
62.917501730194402
  0
LINE
  8
_0-2_SUNPOU
  6
CONTINUOUS
 62
    7
 10
260.86856039308111
 20
101.41750173019438
 11
276.86856039308105
 21
101.41750173019438
  0
LINE
  8
_0-2_SUNPOU
  6
CONTINUOUS
 62
    7
 10
275.86856039308105
 20
63.917501730194402
 11
275.86856039308105
 21
100.41750173019438
  0
LINE
  8
_0-2_SUNPOU
  6
CONTINUOUS
 62
    7
 10
229.86856039308111
 20
74.917501730194373
 11
239.86856039308111
 21
74.917501730194373
  0
LINE
  8
_0-2_SUNPOU
  6
CONTINUOUS
 62
    7
 10
229.86856039308111
 20
70.917501730194359
 11
239.86856039308111
 21
70.917501730194359
  0
LINE
  8
_0-2_SUNPOU
  6
CONTINUOUS
 62
    7
 10
238.86856039308111
 20
75.917501730194359
 11
238.86856039308111
 21
76.917501730194373
  0
LINE
  8
_0-2_SUNPOU
  6
CONTINUOUS
 62
    7
 10
238.86856039308111
 20
69.917501730194373
 11
238.86856039308111
 21
68.917501730194373
  0
LINE
  8
_0-2_SUNPOU
  6
CONTINUOUS
 62
    7
 10
238.86856039308111
 20
74.917501730194373
 11
238.86856039308111
 21
70.917501730194359
  0
LINE
  8
_0-4_HONTAI
  6
CONTINUOUS
 62
    7
 10
434.68113553147173
 20
236.12574688519907
 11
454.68113553147168
 21
236.12574688519907
  0
LINE
  8
_0-4_HONTAI
  6
CONTINUOUS
 62
    7
 10
454.68113553147168
 20
236.12574688519907
 11
454.68113553147168
 21
237.12574688519907
  0
LINE
  8
_0-4_HONTAI
  6
CONTINUOUS
 62
    7
 10
454.68113553147168
 20
237.12574688519907
 11
434.68113553147173
 21
237.12574688519907
  0
LINE
  8
_0-4_HONTAI
  6
CONTINUOUS
 62
    7
 10
434.68113553147173
 20
237.12574688519907
 11
434.68113553147173
 21
236.12574688519907
  0
LINE
  8
_0-4_HONTAI
  6
CONTINUOUS
 62
    7
 10
448.18113553147173
 20
170.62574688519899
 11
448.18113553147173
 21
190.97999557413447
  0
LINE
  8
_0-4_HONTAI
  6
CONTINUOUS
 62
    7
 10
448.18113553147173
 20
190.97999557413447
 11
450.18113553147173
 21
190.97999557413447
  0
LINE
  8
_0-4_HONTAI
  6
CONTINUOUS
 62
    7
 10
450.18113553147173
 20
190.97999557413447
 11
450.18113553147173
 21
144.78644598697007
  0
LINE
  8
_0-4_HONTAI
  6
CONTINUOUS
 62
    7
 10
450.18113553147173
 20
144.78644598697007
 11
448.18113553147173
 21
144.78644598697007
  0
LINE
  8
_0-4_HONTAI
  6
CONTINUOUS
 62
    7
 10
448.18113553147173
 20
144.78644598697007
 11
448.18113553147173
 21
161.62574688519899
  0
LINE
  8
_0-8_HONTAIFUKASIBU
  6
DASHED
 62
    7
 10
439.1811355314719
 20
159.28644598696979
 11
437.68113553147173
 21
159.28644598696979
  0
LINE
  8
_0-8_HONTAIFUKASIBU
  6
DASHED
 62
    7
 10
437.68113553147173
 20
159.28644598696979
 11
437.68113553147173
 21
156.12574688519907
  0
LINE
  8
_0-4_HONTAI
  6
CONTINUOUS
 62
    7
 10
437.68113553147173
 20
156.12574688519907
 11
437.68113553147173
 21
149.28644598696979
  0
LINE
  8
_0-4_HONTAI
  6
CONTINUOUS
 62
    7
 10
437.68113553147173
 20
149.28644598696979
 11
439.18113553147173
 21
149.28644598696979
  0
LINE
  8
_0-7_DEFPOINTS
  6
CONTINUOUS
 62
    7
 10
439.1811355314719
 20
156.12574688519907
 11
439.18113553147173
 21
144.78644598697007
  0
LINE
  8
_0-7_DEFPOINTS
  6
CONTINUOUS
 62
    7
 10
439.18113553147173
 20
144.78644598697007
 11
441.18113553147173
 21
144.78644598697007
  0
LINE
  8
_0-7_DEFPOINTS
  6
CONTINUOUS
 62
    7
 10
441.18113553147173
 20
144.78644598697007
 11
441.18113553147173
 21
156.12574688519907
  0
LINE
  8
_0-4_HONTAI
  6
CONTINUOUS
 62
    7
 10
451.18113553147173
 20
198.12574688519907
 11
453.18113553147179
 21
198.12574688519907
  0
LINE
  8
_0-4_HONTAI
  6
CONTINUOUS
 62
    7
 10
453.18113553147179
 20
198.12574688519907
 11
453.18113553147179
 21
172.12574688519907
  0
LINE
  8
_0-4_HONTAI
  6
CONTINUOUS
 62
    7
 10
453.18113553147179
 20
172.12574688519907
 11
451.18113553147173
 21
172.12574688519907
  0
LINE
  8
_0-4_HONTAI
  6
CONTINUOUS
 62
    7
 10
451.18113553147173
 20
172.12574688519907
 11
451.18113553147173
 21
198.12574688519907
  0
LINE
  8
_0-4_HONTAI
  6
CONTINUOUS
 62
    7
 10
436.18113553147185
 20
176.12574688519907
 11
436.18113553147185
 21
186.12574688519907
  0
LINE
  8
_0-4_HONTAI
  6
CONTINUOUS
 62
    7
 10
436.18113553147185
 20
186.12574688519907
 11
434.68113553147173
 21
186.12574688519907
  0
LINE
  8
_0-4_HONTAI
  6
CONTINUOUS
 62
    7
 10
434.68113553147173
 20
186.12574688519907
 11
434.68113553147173
 21
176.12574688519907
  0
LINE
  8
_0-4_HONTAI
  6
CONTINUOUS
 62
    7
 10
434.68113553147173
 20
176.12574688519907
 11
436.18113553147185
 21
176.12574688519907
  0
LINE
  8
_0-8_HONTAIFUKASIBU
  6
DASHED
 62
    7
 10
448.18113553147173
 20
175.12574688519907
 11
448.18113553147173
 21
187.12574688519907
  0
LINE
  8
_0-8_HONTAIFUKASIBU
  6
DASHED
 62
    7
 10
448.18113553147173
 20
187.12574688519907
 11
441.18113553147173
 21
187.12574688519907
  0
LINE
  8
_0-8_HONTAIFUKASIBU
  6
DASHED
 62
    7
 10
441.18113553147173
 20
187.12574688519907
 11
441.18113553147173
 21
175.12574688519907
  0
LINE
  8
_0-8_HONTAIFUKASIBU
  6
DASHED
 62
    7
 10
441.18113553147173
 20
175.12574688519907
 11
448.18113553147173
 21
175.12574688519907
  0
LINE
  8
_0-4_HONTAI
  6
CONTINUOUS
 62
    7
 10
434.68113553147173
 20
200.12574688519907
 11
454.68113553147168
 21
200.12574688519907
  0
LINE
  8
_0-4_HONTAI
  6
CONTINUOUS
 62
    7
 10
454.68113553147168
 20
200.12574688519907
 11
454.68113553147168
 21
198.12574688519907
  0
LINE
  8
_0-4_HONTAI
  6
CONTINUOUS
 62
    7
 10
454.68113553147168
 20
198.12574688519907
 11
434.68113553147173
 21
198.12574688519907
  0
LINE
  8
_0-4_HONTAI
  6
CONTINUOUS
 62
    7
 10
434.68113553147173
 20
198.12574688519907
 11
434.68113553147173
 21
200.12574688519907
  0
LINE
  8
_0-4_HONTAI
  6
CONTINUOUS
 62
    7
 10
442.68113553147173
 20
148.28644598696979
 11
442.68113553147173
 21
160.28644598696979
  0
LINE
  8
_0-4_HONTAI
  6
CONTINUOUS
 62
    7
 10
442.68113553147173
 20
160.28644598696979
 11
441.18113553147173
 21
160.28644598696979
  0
LINE
  8
_0-4_HONTAI
  6
CONTINUOUS
 62
    7
 10
441.18113553147173
 20
160.28644598696979
 11
441.18113553147173
 21
148.28644598696979
  0
LINE
  8
_0-4_HONTAI
  6
CONTINUOUS
 62
    7
 10
441.18113553147173
 20
148.28644598696979
 11
442.68113553147173
 21
148.28644598696979
  0
LINE
  8
_0-4_HONTAI
  6
CONTINUOUS
 62
    7
 10
447.18113553147173
 20
160.28644598696979
 11
446.68113553147173
 21
160.28644598696979
  0
LINE
  8
_0-4_HONTAI
  6
CONTINUOUS
 62
    7
 10
446.68113553147173
 20
160.28644598696979
 11
446.68113553147173
 21
148.28644598696979
  0
LINE
  8
_0-4_HONTAI
  6
CONTINUOUS
 62
    7
 10
446.68113553147173
 20
148.28644598696979
 11
448.18113553147173
 21
148.28644598696979
  0
LINE
  8
_0-4_HONTAI
  6
CONTINUOUS
 62
    7
 10
448.18113553147173
 20
148.28644598696979
 11
448.18113553147173
 21
160.28644598696979
  0
LINE
  8
_0-4_HONTAI
  6
CONTINUOUS
 62
    7
 10
448.18113553147173
 20
160.28644598696979
 11
447.9811355314718
 21
160.28644598696979
  0
LINE
  8
_0-4_HONTAI
  6
CONTINUOUS
 62
    7
 10
442.68113553147173
 20
145.28644598697007
 11
446.68113553147173
 21
145.28644598697007
  0
LINE
  8
_0-4_HONTAI
  6
CONTINUOUS
 62
    7
 10
446.68113553147173
 20
145.28644598697007
 11
446.68113553147173
 21
175.12574688519907
  0
LINE
  8
_0-4_HONTAI
  6
CONTINUOUS
 62
    7
 10
446.68113553147173
 20
175.12574688519907
 11
442.68113553147173
 21
175.12574688519907
  0
LINE
  8
_0-4_HONTAI
  6
CONTINUOUS
 62
    7
 10
442.68113553147173
 20
175.12574688519907
 11
442.68113553147173
 21
145.28644598697007
  0
LINE
  8
_0-4_HONTAI
  6
CONTINUOUS
 62
    7
 10
416.18113553147185
 20
156.12574688519907
 11
418.1811355314719
 21
156.12574688519907
  0
LINE
  8
_0-4_HONTAI
  6
CONTINUOUS
 62
    7
 10
418.1811355314719
 20
156.12574688519907
 11
418.1811355314719
 21
176.12574688519907
  0
LINE
  8
_0-4_HONTAI
  6
CONTINUOUS
 62
    7
 10
418.1811355314719
 20
176.12574688519907
 11
416.18113553147185
 21
176.12574688519907
  0
LINE
  8
_0-4_HONTAI
  6
CONTINUOUS
 62
    7
 10
416.18113553147185
 20
176.12574688519907
 11
416.18113553147185
 21
156.12574688519907
  0
LINE
  8
_0-4_HONTAI
  6
CONTINUOUS
 62
    7
 10
416.18113553147185
 20
156.12574688519907
 11
441.18113553147185
 21
156.12574688519907
  0
LINE
  8
_0-4_HONTAI
  6
CONTINUOUS
 62
    7
 10
441.18113553147185
 20
156.12574688519907
 11
441.18113553147185
 21
176.12574688519907
  0
LINE
  8
_0-4_HONTAI
  6
CONTINUOUS
 62
    7
 10
441.18113553147185
 20
176.12574688519907
 11
416.18113553147185
 21
176.12574688519907
  0
LINE
  8
_0-4_HONTAI
  6
CONTINUOUS
 62
    7
 10
416.18113553147185
 20
176.12574688519907
 11
416.18113553147185
 21
156.12574688519907
  0
LINE
  8
_0-4_HONTAI
  6
CONTINUOUS
 62
    7
 10
447.9811355314718
 20
158.12574688519899
 11
447.9811355314718
 21
174.12574688519899
  0
LINE
  8
_0-4_HONTAI
  6
CONTINUOUS
 62
    7
 10
447.9811355314718
 20
174.12574688519899
 11
447.18113553147173
 21
174.12574688519899
  0
LINE
  8
_0-4_HONTAI
  6
CONTINUOUS
 62
    7
 10
447.18113553147173
 20
174.12574688519899
 11
447.18113553147173
 21
158.12574688519899
  0
LINE
  8
_0-4_HONTAI
  6
CONTINUOUS
 62
    7
 10
447.18113553147173
 20
158.12574688519899
 11
447.9811355314718
 21
158.12574688519899
  0
LINE
  8
_0-4_HONTAI
  6
CONTINUOUS
 62
    7
 10
449.9811355314718
 20
161.62574688519899
 11
449.9811355314718
 21
170.62574688519899
  0
LINE
  8
_0-4_HONTAI
  6
CONTINUOUS
 62
    7
 10
449.9811355314718
 20
170.62574688519899
 11
447.9811355314718
 21
170.62574688519899
  0
LINE
  8
_0-4_HONTAI
  6
CONTINUOUS
 62
    7
 10
447.9811355314718
 20
170.62574688519899
 11
447.9811355314718
 21
169.62574688519899
  0
LINE
  8
_0-8_HONTAIFUKASIBU
  6
DASHED
 62
    7
 10
447.9811355314718
 20
169.62574688519899
 11
446.9811355314718
 21
169.62574688519899
  0
LINE
  8
_0-8_HONTAIFUKASIBU
  6
DASHED
 62
    7
 10
446.9811355314718
 20
170.62574688519899
 11
442.68113553147173
 21
170.62574688519899
  0
LINE
  8
_0-4_HONTAI
  6
CONTINUOUS
 62
    7
 10
442.68113553147173
 20
170.62574688519899
 11
441.9811355314718
 21
170.62574688519899
  0
LINE
  8
_0-4_HONTAI
  6
CONTINUOUS
 62
    7
 10
441.9811355314718
 20
170.62574688519907
 11
441.9811355314718
 21
161.62574688519899
  0
LINE
  8
_0-4_HONTAI
  6
CONTINUOUS
 62
    7
 10
441.9811355314718
 20
161.62574688519899
 11
442.68113553147173
 21
161.62574688519907
  0
LINE
  8
_0-8_HONTAIFUKASIBU
  6
DASHED
 62
    7
 10
442.68113553147173
 20
161.62574688519899
 11
446.9811355314718
 21
161.62574688519899
  0
LINE
  8
_0-8_HONTAIFUKASIBU
  6
DASHED
 62
    7
 10
446.9811355314718
 20
162.62574688519899
 11
447.9811355314718
 21
162.62574688519899
  0
LINE
  8
_0-4_HONTAI
  6
CONTINUOUS
 62
    7
 10
447.9811355314718
 20
162.62574688519899
 11
447.9811355314718
 21
161.62574688519899
  0
LINE
  8
_0-4_HONTAI
  6
CONTINUOUS
 62
    7
 10
447.9811355314718
 20
161.62574688519899
 11
449.9811355314718
 21
161.62574688519899
  0
LINE
  8
_0-4_HONTAI
  6
CONTINUOUS
 62
    7
 10
447.9811355314718
 20
169.62574688519899
 11
447.9811355314718
 21
162.62574688519899
  0
LINE
  8
_0-4_HONTAI
  6
CONTINUOUS
 62
    7
 10
446.9811355314718
 20
169.62574688519899
 11
446.9811355314718
 21
162.62574688519899
  0
ARC
  8
_0-8_HONTAIFUKASIBU
  6
DASHED
 62
    7
 10
446.18113553147173
 20
166.12574688519899
 40
8.4999999999999431
 50
145.43967822000502
 51
214.560321779995
  0
LINE
  8
_0-8_HONTAIFUKASIBU
  6
DASHED
 62
    7
 10
446.9811355314718
 20
170.62574688519907
 11
446.9811355314718
 21
161.62574688519899
  0
LINE
  8
_0-0_0
  6
CONTINUOUS
 62
    7
 10
441.18113553147185
 20
163.12574688519899
 11
441.9811355314718
 21
163.12574688519899
  0
LINE
  8
_0-0_0
  6
CONTINUOUS
 62
    7
 10
441.18113553147185
 20
169.12574688519899
 11
441.9811355314718
 21
169.12574688519899
  0
LINE
  8
_0-7_DEFPOINTS
  6
CONTINUOUS
 62
    7
 10
-60.137064026437769
 20
-0.0000000000001136
 11
-80.137064026437769
 21
-0.0000000000001136
  0
LINE
  8
_0-7_DEFPOINTS
  6
CONTINUOUS
 62
    7
 10
-80.137064026437769
 20
-0.0000000000001136
 11
-60.137064026437769
 21
-0.0000000000001136
  0
LINE
  8
_0-7_DEFPOINTS
  6
CONTINUOUS
 62
    7
 10
-60.137064026437769
 20
-0.0000000000001136
 11
-60.137064026437769
 21
-20.000000000000113
  0
LINE
  8
_0-7_DEFPOINTS
  6
CONTINUOUS
 62
    7
 10
-60.137064026437769
 20
-20.000000000000113
 11
-60.137064026437769
 21
-0.0000000000001136
  0
LINE
  8
_0-7_DEFPOINTS
  6
CONTINUOUS
 62
    7
 10
359.862935973562
 20
297.00000000000011
 11
379.862935973562
 21
297.00000000000011
  0
LINE
  8
_0-7_DEFPOINTS
  6
CONTINUOUS
 62
    7
 10
379.862935973562
 20
297.00000000000011
 11
359.862935973562
 21
297.00000000000011
  0
LINE
  8
_0-7_DEFPOINTS
  6
CONTINUOUS
 62
    7
 10
359.862935973562
 20
297.00000000000011
 11
359.862935973562
 21
317.00000000000011
  0
LINE
  8
_0-7_DEFPOINTS
  6
CONTINUOUS
 62
    7
 10
359.862935973562
 20
317.00000000000011
 11
359.862935973562
 21
297.00000000000011
  0
LINE
  8
_0-7_DEFPOINTS
  6
CONTINUOUS
 62
    7
 10
-60.137064026437769
 20
297.00000000000011
 11
359.862935973562
 21
297.00000000000011
  0
LINE
  8
_0-7_DEFPOINTS
  6
CONTINUOUS
 62
    7
 10
359.862935973562
 20
297.00000000000011
 11
359.86293597356223
 21
0.0000000000000568
  0
LINE
  8
_0-7_DEFPOINTS
  6
CONTINUOUS
 62
    7
 10
359.86293597356223
 20
0.0000000000000568
 11
-60.137064026437769
 21
-0.0000000000001136
  0
LINE
  8
_0-7_DEFPOINTS
  6
CONTINUOUS
 62
    7
 10
-60.137064026437769
 20
-0.0000000000001136
 11
-60.137064026437769
 21
297.00000000000011
  0
TEXT
  8
_0-3_TEXT
 62
    7
 10
16.612935973562059
 20
13.125000000000028
 40
3.75
 41
1
 50
0
  1
年 月 日
  0
TEXT
  8
_0-3_TEXT
 62
    7
 10
-20.38706402643794
 20
13.124999999999914
 40
3.75
 41
1
 50
0
  1
訂　正　箇　所
  0
TEXT
  8
_0-3_TEXT
 62
    7
 10
-31.38706402643794
 20
31.125000000000056
 40
3.75
 41
1
 50
0
  1
3
  0
TEXT
  8
_0-3_TEXT
 62
    7
 10
-31.38706402643794
 20
25.125000000000042
 40
3.75
 41
1
 50
0
  1
2
  0
TEXT
  8
_0-3_TEXT
 62
    7
 10
-33.26206402643794
 20
13.125000000000028
 40
3.75
 41
1
 50
0
  1
No
  0
TEXT
  8
_0-3_TEXT
 62
    7
 10
-30.76206402643794
 20
19.125000000000028
 40
3.75
 41
1
 50
0
  1
1
  0
TEXT
  8
_0-3_TEXT
 62
    7
 10
35.612935973562059
 20
13.125000000000028
 40
3.75
 41
1
 50
0
  1
訂正者
  0
TEXT
  8
_0-3_TEXT
 62
    7
 10
75.98793597356223
 20
24.699999999999832
 40
2.9249999999999989
 41
1
 50
0
  1
設　計
  0
TEXT
  8
_0-3_TEXT
 62
    7
 10
92.085435973562226
 20
24.699999999999832
 40
2.9249999999999989
 41
1
 50
0
  1
製　図
  0
TEXT
  8
_0-3_TEXT
 62
    7
 10
108.08543597356222
 20
24.699999999999832
 40
2.9249999999999989
 41
1
 50
0
  1
検　図
  0
TEXT
  8
_0-3_TEXT
 62
    7
 10
123.98793597356223
 20
24.699999999999832
 40
2.9249999999999989
 41
1
 50
0
  1
承　認
  0
TEXT
  8
_0-3_TEXT
 62
    7
 10
139.32543597356223
 20
27.683333333333223
 40
3.25
 41
1
 50
0
  1
尺度
  7
TATEGAKI
  0
TEXT
  8
_0-3_TEXT
 62
    7
 10
137.86293597356223
 20
14.037499999999909
 40
3.25
 41
1
 50
0
  1
日付
  0
TEXT
  8
_0-3_TEXT
 62
    7
 10
183.32543597356223
 20
27.574999999999889
 40
3.25
 41
1
 50
0
  1
材質
  7
TATEGAKI
  0
TEXT
  8
_0-3_TEXT
 62
    7
 10
181.86293597356223
 20
14.03749999999988
 40
3.25
 41
1
 50
0
  1
仕上
  0
TEXT
  8
_0-3_TEXT
 62
    7
 10
233.3254359735622
 20
27.683333333333209
 40
3.25
 41
1
 50
0
  1
図番
  7
TATEGAKI
  0
TEXT
  8
_0-3_TEXT
 62
    7
 10
231.86293597356223
 20
14.03749999999988
 40
3.25
 41
1
 50
0
  1
品名
  0
TEXT
  8
_0-3_TEXT
 62
    7
 10
223.6354359735622
 20
30.199999999999832
 40
2.9249999999999989
 41
1
 50
0
  1
図　　番
  0
TEXT
  8
_0-3_TEXT
 62
    7
 10
276.3254359735622
 20
27.683333333333195
 40
3.25
 41
1
 50
0
  1
品番
  7
TATEGAKI
  0
TEXT
  8
_0-3_TEXT
 62
    7
 10
244.74293597356222
 20
30.199999999999832
 40
2.9249999999999989
 41
1
 50
0
  1
番号
  0
TEXT
  8
_0-3_TEXT
 62
    7
 10
266.3304359735622
 20
30.199999999999832
 40
2.9249999999999989
 41
1
 50
0
  1
品　　名
  0
TEXT
  8
_0-3_TEXT
 62
    7
 10
294.74293597356222
 20
30.199999999999832
 40
2.9249999999999989
 41
1
 50
0
  1
個数
  0
TEXT
  8
_0-3_TEXT
 62
    7
 10
306.23293597356223
 20
30.199999999999832
 40
2.9249999999999989
 41
1
 50
0
  1
材　　質
  0
TEXT
  8
_0-3_TEXT
 62
    7
 10
328.73293597356223
 20
30.199999999999832
 40
2.9249999999999989
 41
1
 50
0
  1
備　　考
  0
TEXT
  8
_0-2_SUNPOU
 62
    7
 10
144.53708105359473
 20
270.12167981450346
 40
3
 41
1
 50
0
  1
T+226
  0
LINE
  8
_0-0_0
  6
CONTINUOUS
 62
    7
 10
308.36856039308111
 20
269.12167981450346
 11
307.86856039308111
 21
269.12167981450346
  0
LINE
  8
_0-0_0
  6
CONTINUOUS
 62
    7
 10
-5.2943982858915319
 20
269.12167981450346
 11
-4.7943982858915319
 21
269.12167981450346
  0
TEXT
  8
_0-2_SUNPOU
 62
    7
 10
112.04401177386662
 20
185.24708784849539
 40
3
 41
1
 50
90
  1
19
  0
LINE
  8
_0-0_0
  6
CONTINUOUS
 62
    7
 10
113.04401177386674
 20
196.24708784849539
 11
113.04401177386674
 21
195.74708784849539
  0
LINE
  8
_0-0_0
  6
CONTINUOUS
 62
    7
 10
113.04401177386662
 20
178.24708784849539
 11
113.04401177386662
 21
178.74708784849539
  0
LINE
  8
_0-3_TEXT
  6
CONTINUOUS
 62
    7
 10
181.13639245254503
 20
185.06080037775848
 11
209.33639245254505
 21
185.06080037775848
  0
LINE
  8
_0-3_TEXT
  6
CONTINUOUS
 62
    7
 10
172.04401177386682
 20
192.14901163714208
 11
176.13639245254492
 21
185.06080037775848
  0
TEXT
  8
_0-3_TEXT
 62
    7
 10
181.53639245254504
 20
185.66080037775847
 40
3
 41
1
 50
0.0000000000000339
  1
タッピング皿ネジ
  0
LINE
  8
_0-3_TEXT
  6
CONTINUOUS
 62
    7
 10
260.0288144309257
 20
116.41750173019428
 11
288.22881443092575
 21
116.41750173019418
  0
LINE
  8
_0-3_TEXT
  6
CONTINUOUS
 62
    7
 10
247.86856039308111
 20
104.01557794154749
 11
255.0288144309257
 21
116.41750173019428
  0
TEXT
  8
_0-3_TEXT
 62
    7
 10
260.42881443092574
 20
117.01750173019418
 40
3
 41
1
 50
-0.0000000000000169
  1
タッピング皿ネジ
  0
LINE
  8
_0-3_TEXT
  6
CONTINUOUS
 62
    7
 10
73.558757736022016
 20
54.236893764110547
 11
117.75875773602191
 21
54.236893764110504
  0
LINE
  8
_0-3_TEXT
  6
CONTINUOUS
 62
    7
 10
126.91901177386662
 20
66.638817552757217
 11
119.75875773602191
 21
54.236893764110504
  0
TEXT
  8
_0-3_TEXT
 62
    7
 10
73.558757736022016
 20
49.836893764110556
 40
3
 41
1
 50
0
  1
皿ビス M4x45(D-7)用
  0
TEXT
  8
_0-2_SUNPOU
 62
    7
 10
200.4346780021878
 20
70.667501730194473
 40
3
 41
1
 50
90
  1
20
  0
LINE
  8
_0-0_0
  6
CONTINUOUS
 62
    7
 10
201.4346780021878
 20
82.41750173019443
 11
201.4346780021878
 21
81.91750173019443
  0
LINE
  8
_0-0_0
  6
CONTINUOUS
 62
    7
 10
201.4346780021878
 20
63.41750173019443
 11
201.4346780021878
 21
63.91750173019443
  0
TEXT
  8
_0-2_SUNPOU
 62
    7
 10
113.65334554554553
 20
88.167501730194359
 40
3
 41
1
 50
90
  1
18.5
  0
LINE
  8
_0-0_0
  6
CONTINUOUS
 62
    7
 10
114.65334554554553
 20
100.91750173019428
 11
114.65334554554553
 21
100.41750173019418
  0
LINE
  8
_0-0_0
  6
CONTINUOUS
 62
    7
 10
114.65334554554553
 20
83.41750173019443
 11
114.65334554554553
 21
83.91750173019443
  0
LINE
  8
_0-3_TEXT
  6
CONTINUOUS
 62
    7
 10
248.86856039308111
 20
163.41696082957318
 11
260.61171819958025
 21
143.07721486741769
  0
TEXT
  8
_0-2_SUNPOU
 62
    7
 10
282.36856039308105
 20
221.24708784849539
 40
3
 41
1
 50
90
  1
D
  0
LINE
  8
_0-0_0
  6
CONTINUOUS
 62
    7
 10
280.86856039308111
 20
197.24708784849528
 11
280.86856039308111
 21
197.74708784849528
  0
LINE
  8
_0-0_0
  6
CONTINUOUS
 62
    7
 10
280.86856039308111
 20
247.24708784849539
 11
280.86856039308111
 21
246.74708784849539
  0
LINE
  8
_0-3_TEXT
  6
CONTINUOUS
 62
    7
 10
48.300853967367515
 20
242.95285921443539
 11
114.30085396736762
 21
242.95285921443539
  0
LINE
  8
_0-3_TEXT
  6
CONTINUOUS
 62
    7
 10
128.04401177386674
 20
222.61311325227978
 11
116.30085396736762
 21
242.95285921443539
  0
TEXT
  8
_0-2_SUNPOU
 62
    7
 10
-16.876812951316139
 20
162.57743739938089
 40
3
 41
1
 50
90
  1
(55.3)
  0
LINE
  8
_0-0_0
  6
CONTINUOUS
 62
    7
 10
-15.876812951316082
 20
196.24708784849528
 11
-15.876812951316082
 21
195.74708784849528
  0
LINE
  8
_0-0_0
  6
CONTINUOUS
 62
    7
 10
-15.876812951316082
 20
141.90778695026639
 11
-15.876812951316082
 21
142.40778695026639
  0
TEXT
  8
_0-2_SUNPOU
 62
    7
 10
203.61856039308111
 20
141.74708784849528
 40
3
 41
1
 50
0
  1
25.5
  0
LINE
  8
_0-0_0
  6
CONTINUOUS
 62
    7
 10
220.36856039308111
 20
140.74708784849539
 11
219.86856039308111
 21
140.74708784849539
  0
LINE
  8
_0-0_0
  6
CONTINUOUS
 62
    7
 10
195.86856039308111
 20
140.74708784849539
 11
196.36856039308111
 21
140.74708784849539
  0
TEXT
  8
_0-2_SUNPOU
 62
    7
 10
226.86856039308111
 20
141.74708784849528
 40
3
 41
1
 50
0
  1
20.5
  0
LINE
  8
_0-0_0
  6
CONTINUOUS
 62
    7
 10
240.86856039308111
 20
140.74708784849539
 11
240.36856039308111
 21
140.74708784849539
  0
LINE
  8
_0-0_0
  6
CONTINUOUS
 62
    7
 10
221.36856039308111
 20
140.74708784849539
 11
221.86856039308111
 21
140.74708784849539
  0
TEXT
  8
_0-2_SUNPOU
 62
    7
 10
206.36856039308111
 20
133.74708784849539
 40
3
 41
1
 50
0
  1
20.5
  0
LINE
  8
_0-0_0
  6
CONTINUOUS
 62
    7
 10
220.36856039308111
 20
132.74708784849539
 11
219.86856039308111
 21
132.74708784849539
  0
LINE
  8
_0-0_0
  6
CONTINUOUS
 62
    7
 10
200.86856039308111
 20
132.74708784849539
 11
201.36856039308111
 21
132.74708784849539
  0
TEXT
  8
_0-2_SUNPOU
 62
    7
 10
229.11856039308111
 20
133.74708784849539
 40
3
 41
1
 50
0
  1
25.5
  0
LINE
  8
_0-0_0
  6
CONTINUOUS
 62
    7
 10
245.86856039308111
 20
132.74708784849539
 11
245.36856039308111
 21
132.74708784849539
  0
LINE
  8
_0-0_0
  6
CONTINUOUS
 62
    7
 10
221.36856039308111
 20
132.74708784849539
 11
221.86856039308111
 21
132.74708784849539
  0
TEXT
  8
_0-2_SUNPOU
 62
    7
 10
218.61856039308111
 20
125.74708784849538
 40
3
 41
1
 50
0
  1
70
  0
LINE
  8
_0-0_0
  6
CONTINUOUS
 62
    7
 10
255.36856039308111
 20
124.74708784849538
 11
254.86856039308111
 21
124.74708784849538
  0
LINE
  8
_0-0_0
  6
CONTINUOUS
 62
    7
 10
186.36856039308113
 20
124.74708784849538
 11
186.86856039308113
 21
124.74708784849538
  0
TEXT
  8
_0-2_SUNPOU
 62
    7
 10
136.04401177386674
 20
210.93191593219827
 40
3
 41
1
 50
0
  1
15
  0
LINE
  8
_0-0_0
  6
CONTINUOUS
 62
    7
 10
145.04401177386674
 20
209.93191593219819
 11
144.54401177386674
 21
209.93191593219819
  0
LINE
  8
_0-0_0
  6
CONTINUOUS
 62
    7
 10
131.04401177386674
 20
209.93191593219819
 11
131.54401177386674
 21
209.93191593219819
  0
TEXT
  8
_0-2_SUNPOU
 62
    7
 10
155.54401177386674
 20
210.93191593219827
 40
3
 41
1
 50
0
  1
25
  0
LINE
  8
_0-0_0
  6
CONTINUOUS
 62
    7
 10
170.04401177386674
 20
209.93191593219819
 11
169.54401177386674
 21
209.93191593219819
  0
LINE
  8
_0-0_0
  6
CONTINUOUS
 62
    7
 10
146.04401177386674
 20
209.93191593219819
 11
146.54401177386674
 21
209.93191593219819
  0
TEXT
  8
_0-2_SUNPOU
 62
    7
 10
176.04401177386674
 20
210.93191593219827
 40
3
 41
1
 50
0
  1
15
  0
LINE
  8
_0-0_0
  6
CONTINUOUS
 62
    7
 10
185.04401177386674
 20
209.93191593219819
 11
184.54401177386674
 21
209.93191593219819
  0
LINE
  8
_0-0_0
  6
CONTINUOUS
 62
    7
 10
171.04401177386674
 20
209.93191593219819
 11
171.54401177386674
 21
209.93191593219819
  0
TEXT
  8
_0-2_SUNPOU
 62
    7
 10
155.79401177386674
 20
220.93191593219827
 40
3
 41
1
 50
0
  1
70
  0
LINE
  8
_0-0_0
  6
CONTINUOUS
 62
    7
 10
192.54401177386674
 20
219.93191593219827
 11
192.04401177386674
 21
219.93191593219827
  0
LINE
  8
_0-0_0
  6
CONTINUOUS
 62
    7
 10
123.54401177386674
 20
219.93191593219827
 11
124.04401177386674
 21
219.93191593219827
  0
TEXT
  8
_0-2_SUNPOU
 62
    7
 10
184.95628608347394
 20
263.74708784849536
 40
3
 41
1
 50
0
  1
62.8
  0
LINE
  8
_0-0_0
  6
CONTINUOUS
 62
    7
 10
158.54401177386674
 20
262.74708784849536
 11
159.04401177386674
 21
262.74708784849536
  0
LINE
  8
_0-0_0
  6
CONTINUOUS
 62
    7
 10
220.36856039308111
 20
262.74708784849536
 11
219.86856039308111
 21
262.74708784849536
  0
TEXT
  8
_0-2_SUNPOU
 62
    7
 10
263.86856039308111
 20
261.24708784849536
 40
3
 41
1
 50
0
  1
T
  0
LINE
  8
_0-0_0
  6
CONTINUOUS
 62
    7
 10
221.36856039308111
 20
262.74708784849536
 11
221.86856039308111
 21
262.74708784849536
  0
LINE
  8
_0-0_0
  6
CONTINUOUS
 62
    7
 10
308.36856039308111
 20
262.74708784849536
 11
307.86856039308111
 21
262.74708784849536
  0
TEXT
  8
_0-2_SUNPOU
 62
    7
 10
269.86856039308105
 20
169.24708784849539
 40
3
 41
1
 50
90
  1
5
  0
LINE
  8
_0-0_0
  6
CONTINUOUS
 62
    7
 10
270.86856039308111
 20
168.24708784849539
 11
270.86856039308111
 21
168.74708784849539
  0
LINE
  8
_0-0_0
  6
CONTINUOUS
 62
    7
 10
270.86856039308111
 20
172.24708784849539
 11
270.86856039308111
 21
171.74708784849539
  0
TEXT
  8
_0-2_SUNPOU
 62
    7
 10
269.86856039308105
 20
160.99708784849539
 40
3
 41
1
 50
90
  1
10
  0
LINE
  8
_0-0_0
  6
CONTINUOUS
 62
    7
 10
270.86856039308111
 20
158.24708784849539
 11
270.86856039308111
 21
158.74708784849539
  0
LINE
  8
_0-0_0
  6
CONTINUOUS
 62
    7
 10
270.86856039308111
 20
167.24708784849539
 11
270.86856039308111
 21
166.74708784849528
  0
TEXT
  8
_0-2_SUNPOU
 62
    7
 10
269.86856039308105
 20
154.24708784849539
 40
3
 41
1
 50
90
  1
5
  0
LINE
  8
_0-0_0
  6
CONTINUOUS
 62
    7
 10
270.86856039308111
 20
153.24708784849539
 11
270.86856039308111
 21
153.74708784849539
  0
LINE
  8
_0-0_0
  6
CONTINUOUS
 62
    7
 10
270.86856039308111
 20
157.24708784849539
 11
270.86856039308111
 21
156.74708784849539
  0
TEXT
  8
_0-2_SUNPOU
 62
    7
 10
279.86856039308105
 20
160.49708784849539
 40
3
 41
1
 50
90
  1
20
  0
LINE
  8
_0-0_0
  6
CONTINUOUS
 62
    7
 10
280.86856039308111
 20
153.24708784849539
 11
280.86856039308111
 21
153.74708784849539
  0
LINE
  8
_0-0_0
  6
CONTINUOUS
 62
    7
 10
280.86856039308111
 20
172.24708784849539
 11
280.86856039308111
 21
171.74708784849539
  0
TEXT
  8
_0-2_SUNPOU
 62
    7
 10
279.86856039308105
 20
182.24708784849539
 40
3
 41
1
 50
90
  1
24
  0
LINE
  8
_0-0_0
  6
CONTINUOUS
 62
    7
 10
280.86856039308111
 20
196.24708784849528
 11
280.86856039308111
 21
195.74708784849528
  0
LINE
  8
_0-0_0
  6
CONTINUOUS
 62
    7
 10
280.86856039308111
 20
173.24708784849539
 11
280.86856039308111
 21
173.74708784849539
  0
TEXT
  8
_0-2_SUNPOU
 62
    7
 10
264.86856039308105
 20
82.667501730194373
 40
3
 41
1
 50
90
  1
28.5
  0
LINE
  8
_0-0_0
  6
CONTINUOUS
 62
    7
 10
265.86856039308105
 20
100.91750173019428
 11
265.86856039308105
 21
100.41750173019418
  0
LINE
  8
_0-0_0
  6
CONTINUOUS
 62
    7
 10
265.86856039308105
 20
73.417501730194359
 11
265.86856039308105
 21
73.917501730194373
  0
TEXT
  8
_0-2_SUNPOU
 62
    7
 10
186.29401177386674
 20
53.285462978940756
 40
3
 41
1
 50
0
  1
7.5
  0
LINE
  8
_0-0_0
  6
CONTINUOUS
 62
    7
 10
193.54401177386674
 20
52.285462978940756
 11
194.04401177386674
 21
52.285462978940756
  0
LINE
  8
_0-0_0
  6
CONTINUOUS
 62
    7
 10
185.04401177386674
 20
52.285462978940756
 11
184.54401177386674
 21
52.285462978940756
  0
TEXT
  8
_0-2_SUNPOU
 62
    7
 10
176.04401177386674
 20
53.285462978940756
 40
3
 41
1
 50
0
  1
15
  0
LINE
  8
_0-0_0
  6
CONTINUOUS
 62
    7
 10
185.04401177386674
 20
52.285462978940756
 11
184.54401177386674
 21
52.285462978940756
  0
LINE
  8
_0-0_0
  6
CONTINUOUS
 62
    7
 10
171.04401177386674
 20
52.285462978940756
 11
171.54401177386674
 21
52.285462978940756
  0
TEXT
  8
_0-2_SUNPOU
 62
    7
 10
155.54401177386674
 20
53.285462978940756
 40
3
 41
1
 50
0
  1
25
  0
LINE
  8
_0-0_0
  6
CONTINUOUS
 62
    7
 10
170.04401177386674
 20
52.285462978940756
 11
169.54401177386674
 21
52.285462978940756
  0
LINE
  8
_0-0_0
  6
CONTINUOUS
 62
    7
 10
146.04401177386674
 20
52.285462978940756
 11
146.54401177386674
 21
52.285462978940756
  0
TEXT
  8
_0-2_SUNPOU
 62
    7
 10
136.04401177386674
 20
53.285462978940756
 40
3
 41
1
 50
0
  1
15
  0
LINE
  8
_0-0_0
  6
CONTINUOUS
 62
    7
 10
145.04401177386662
 20
52.285462978940756
 11
144.54401177386674
 21
52.285462978940756
  0
LINE
  8
_0-0_0
  6
CONTINUOUS
 62
    7
 10
131.04401177386674
 20
52.285462978940756
 11
131.54401177386674
 21
52.285462978940756
  0
TEXT
  8
_0-2_SUNPOU
 62
    7
 10
123.79401177386662
 20
53.285462978940756
 40
3
 41
1
 50
0
  1
7.5
  0
LINE
  8
_0-0_0
  6
CONTINUOUS
 62
    7
 10
131.04401177386674
 20
52.285462978940756
 11
131.54401177386674
 21
52.285462978940756
  0
LINE
  8
_0-0_0
  6
CONTINUOUS
 62
    7
 10
122.54401177386674
 20
52.285462978940756
 11
122.04401177386674
 21
52.285462978940756
  0
TEXT
  8
_0-2_SUNPOU
 62
    7
 10
155.79401177386674
 20
43.984529418564704
 40
3
 41
1
 50
0
  1
70
  0
LINE
  8
_0-0_0
  6
CONTINUOUS
 62
    7
 10
192.54401177386674
 20
42.984529418564704
 11
192.04401177386674
 21
42.984529418564704
  0
LINE
  8
_0-0_0
  6
CONTINUOUS
 62
    7
 10
123.54401177386674
 20
42.984529418564704
 11
124.04401177386674
 21
42.984529418564704
  0
TEXT
  8
_0-2_SUNPOU
 62
    7
 10
95.843355979812542
 20
188.28324279842598
 40
3
 41
1
 50
14.122369057109235
  1
110
  0
LINE
  8
_0-0_0
  6
CONTINUOUS
 62
    7
 10
151.60707318388674
 20
201.28210211699857
 11
151.12218476851941
 21
201.16010529473388
  0
LINE
  8
_0-0_0
  6
CONTINUOUS
 62
    7
 10
45.901398633836322
 20
174.68679486329619
 11
46.386287049203531
 21
174.80879168556089
  0
LINE
  8
_0-0_0
  6
CONTINUOUS
 62
    7
 10
97.946586055954043
 20
159.63633352737497
 11
84.175755059525329
 21
156.17162377505817
  0
ARC
  8
_0-0_0
  6
CONTINUOUS
 62
    7
 10
83.468173490390228
 20
158.98397658418798
 40
2.8999999999999719
 50
194.12236905710719
 51
284.12236905710727
  0
ARC
  8
_0-0_0
  6
CONTINUOUS
 62
    7
 10
83.468173490390228
 20
158.98397658418798
 40
2.9000000000000127
 50
104.1223690571079
 51
194.1223690571083
  0
LINE
  8
_0-0_0
  6
CONTINUOUS
 62
    7
 10
82.760591921255127
 20
161.79632939331779
 11
96.531422917683727
 21
165.26103914563458
  0
ARC
  8
_0-0_0
  6
CONTINUOUS
 62
    7
 10
97.239004486818942
 20
162.44868633650477
 40
2.8999999999999861
 50
14.12236905710737
 51
104.12236905710838
  0
ARC
  8
_0-0_0
  6
CONTINUOUS
 62
    7
 10
97.239004486818942
 20
162.44868633650477
 40
2.8999999999999861
 50
284.12236905710727
 51
14.122369057108452
  0
LINE
  8
_0-4_HONTAI
  6
CONTINUOUS
 62
    7
 10
104.59048700859221
 20
160.68922484728099
 11
109.92425957763143
 21
162.03118989219248
  0
LINE
  8
_0-4_HONTAI
  6
CONTINUOUS
 62
    7
 10
109.92425957763143
 20
162.03118989219248
 11
108.21630406592603
 21
168.81962770733338
  0
LINE
  8
_0-4_HONTAI
  6
CONTINUOUS
 62
    7
 10
108.21630406592603
 20
168.81962770733338
 11
102.88253149688674
 21
167.47766266242189
  0
ARC
  8
_0-4_HONTAI
  6
CONTINUOUS
 62
    7
 10
103.73650925273943
 20
164.08344375485148
 40
3.5000000000000168
 50
104.1223690571079
 51
194.1223690571075
  0
ARC
  8
_0-4_HONTAI
  6
CONTINUOUS
 62
    7
 10
103.73650925273943
 20
164.08344375485148
 40
3.5000000000000111
 50
194.1223690571075
 51
284.12236905710761
  0
LINE
  8
_0-4_HONTAI
  6
CONTINUOUS
 62
    7
 10
109.92425957763143
 20
162.03118989219248
 11
115.74292056203793
 21
163.49515175936858
  0
LINE
  8
_0-4_HONTAI
  6
CONTINUOUS
 62
    7
 10
115.74292056203793
 20
163.49515175936858
 11
114.03496505033251
 21
170.28358957450947
  0
LINE
  8
_0-4_HONTAI
  6
CONTINUOUS
 62
    7
 10
114.03496505033251
 20
170.28358957450947
 11
108.21630406592603
 21
168.81962770733338
  0
LINE
  8
_0-4_HONTAI
  6
CONTINUOUS
 62
    7
 10
108.21630406592603
 20
168.81962770733338
 11
109.92425957763143
 21
162.03118989219248
  0
TEXT
  8
_0-2_SUNPOU
 62
    7
 10
130.61856039308113
 20
117.90778695026638
 40
3
 41
1
 50
0
  1
169.5
  0
LINE
  8
_0-0_0
  6
CONTINUOUS
 62
    7
 10
220.36856039308111
 20
116.90778695026638
 11
219.86856039308111
 21
116.90778695026638
  0
LINE
  8
_0-0_0
  6
CONTINUOUS
 62
    7
 10
51.868560393081224
 20
116.90778695026638
 11
52.368560393081224
 21
116.90778695026638
  0
LINE
  8
_0-3_TEXT
  6
CONTINUOUS
 62
    7
 10
310.01248040033175
 20
249.38765086679478
 11
313.06471281578774
 21
253.76503704092647
  0
TEXT
  8
_0-3_TEXT
 62
    7
 10
315.15471281578771
 20
252.26503704092647
 40
3
 41
1
 50
0
  1
軸芯位置
  0
LINE
  8
_0-0_0
  6
CONTINUOUS
 62
    7
 10
64.116020392235327
 20
69.941761378269518
 11
64.116020392235327
 21
70.441761378269518
  0
LINE
  8
_0-0_0
  6
CONTINUOUS
 62
    7
 10
64.116020392235327
 20
66.941761378269518
 11
64.116020392235327
 21
66.441761378269518
  0
TEXT
  8
_0-2_SUNPOU
 62
    7
 10
65.616020392235327
 20
63.451989909070505
 40
3
 41
1
 50
90
  1
2
  0
LINE
  8
_0-0_0
  6
CONTINUOUS
 62
    7
 10
64.116020392235327
 20
78.917501730194373
 11
64.116020392235327
 21
79.417501730194373
  0
LINE
  8
_0-0_0
  6
CONTINUOUS
 62
    7
 10
64.116020392235327
 20
75.917501730194359
 11
64.116020392235327
 21
75.417501730194359
  0
TEXT
  8
_0-2_SUNPOU
 62
    7
 10
65.616020392235327
 20
80.47622358031873
 40
3
 41
1
 50
90
  1
2
  0
TEXT
  8
_0-2_SUNPOU
 62
    7
 10
274.86856039308105
 20
77.667501730194445
 40
3
 41
1
 50
90
  1
38.5
  0
LINE
  8
_0-0_0
  6
CONTINUOUS
 62
    7
 10
275.86856039308105
 20
100.91750173019438
 11
275.86856039308105
 21
100.41750173019438
  0
LINE
  8
_0-0_0
  6
CONTINUOUS
 62
    7
 10
275.86856039308105
 20
63.417501730194402
 11
275.86856039308105
 21
63.917501730194402
  0
TEXT
  8
_0-2_SUNPOU
 62
    7
 10
242.86856039308111
 20
71.91750173019443
 40
3
 41
1
 50
90
  1
4
  0
LINE
  8
_0-0_0
  6
CONTINUOUS
 62
    7
 10
238.86856039308111
 20
70.417501730194359
 11
238.86856039308111
 21
69.917501730194373
  0
LINE
  8
_0-0_0
  6
CONTINUOUS
 62
    7
 10
238.86856039308111
 20
75.417501730194359
 11
238.86856039308111
 21
75.917501730194359
  0
LINE
  8
_0-0_0
  6
CONTINUOUS
 62
    7
 10
322.86293597356223
 20
33.999999999999829
 11
322.86293597356223
 21
28.999999999999829
  0
LINE
  8
_0-0_0
  6
CONTINUOUS
 62
    7
 10
302.86293597356223
 20
33.999999999999829
 11
302.86293597356223
 21
28.999999999999829
  0
LINE
  8
_0-0_0
  6
CONTINUOUS
 62
    7
 10
292.86293597356223
 20
33.999999999999829
 11
292.86293597356223
 21
28.999999999999829
  0
LINE
  8
_0-0_0
  6
CONTINUOUS
 62
    7
 10
252.86293597356223
 20
33.999999999999829
 11
252.86293597356223
 21
28.999999999999829
  0
LINE
  8
_0-0_0
  6
CONTINUOUS
 62
    7
 10
242.86293597356223
 20
33.999999999999829
 11
242.86293597356223
 21
28.999999999999829
  0
LINE
  8
_0-0_0
  6
CONTINUOUS
 62
    7
 10
273.86293597356223
 20
18.999999999999943
 11
273.86293597356223
 21
28.999999999999829
  0
LINE
  8
_0-0_0
  6
CONTINUOUS
 62
    7
 10
347.86293597356223
 20
33.999999999999829
 11
217.86293597356223
 21
33.999999999999829
  0
LINE
  8
_0-0_0
  6
CONTINUOUS
 62
    7
 10
217.86293597356223
 20
33.999999999999829
 11
217.86293597356223
 21
28.999999999999829
  0
LINE
  8
_0-0_0
  6
CONTINUOUS
 62
    7
 10
230.86293597356223
 20
12
 11
230.86293597356223
 21
28.999999999999829
  0
LINE
  8
_0-0_0
  6
CONTINUOUS
 62
    7
 10
180.86293597356223
 20
12
 11
180.86293597356223
 21
28.999999999999829
  0
LINE
  8
_0-0_0
  6
CONTINUOUS
 62
    7
 10
136.86293597356223
 20
18.999999999999971
 11
347.86293597356223
 21
18.999999999999914
  0
LINE
  8
_0-0_0
  6
CONTINUOUS
 62
    7
 10
136.86293597356223
 20
12
 11
136.86293597356223
 21
28.999999999999829
  0
LINE
  8
_0-0_0
  6
CONTINUOUS
 62
    7
 10
120.86293597356223
 20
12
 11
120.86293597356223
 21
28.999999999999829
  0
LINE
  8
_0-0_0
  6
CONTINUOUS
 62
    7
 10
104.86293597356223
 20
12
 11
104.86293597356223
 21
28.999999999999829
  0
LINE
  8
_0-0_0
  6
CONTINUOUS
 62
    7
 10
88.86293597356223
 20
12
 11
88.86293597356223
 21
28.999999999999829
  0
LINE
  8
_0-0_0
  6
CONTINUOUS
 62
    7
 10
347.86293597356223
 20
28.999999999999829
 11
72.86293597356223
 21
28.999999999999829
  0
LINE
  8
_0-0_0
  6
CONTINUOUS
 62
    7
 10
72.86293597356223
 20
28.999999999999829
 11
72.86293597356223
 21
11.999999999999829
  0
LINE
  8
_0-0_0
  6
CONTINUOUS
 62
    7
 10
34.862935973562059
 20
12.000000000000028
 11
34.862935973562059
 21
36.000000000000056
  0
LINE
  8
_0-0_0
  6
CONTINUOUS
 62
    7
 10
14.862935973562059
 20
12.000000000000028
 11
14.862935973562059
 21
36.000000000000056
  0
LINE
  8
_0-0_0
  6
CONTINUOUS
 62
    7
 10
-25.13706402643794
 20
12.000000000000028
 11
-25.13706402643794
 21
36.000000000000056
  0
LINE
  8
_0-0_0
  6
CONTINUOUS
 62
    7
 10
-35.13706402643794
 20
18.000000000000028
 11
48.862935973562031
 21
18.000000000000028
  0
LINE
  8
_0-0_0
  6
CONTINUOUS
 62
    7
 10
-35.13706402643794
 20
24.000000000000028
 11
48.862935973562031
 21
24.000000000000028
  0
LINE
  8
_0-0_0
  6
CONTINUOUS
 62
    7
 10
-35.13706402643794
 20
30.000000000000028
 11
48.862935973562031
 21
30.000000000000028
  0
LINE
  8
_0-0_0
  6
CONTINUOUS
 62
    7
 10
-35.13706402643794
 20
36.000000000000056
 11
48.862935973562031
 21
36.000000000000056
  0
LINE
  8
_0-0_0
  6
CONTINUOUS
 62
    7
 10
48.862935973562031
 20
36.000000000000056
 11
48.862935973562031
 21
12.000000000000028
  0
LINE
  8
_0-0_0
  6
CONTINUOUS
 62
    7
 10
48.862935973562031
 20
12.000000000000028
 11
-35.13706402643794
 21
12.000000000000028
  0
LINE
  8
_0-0_0
  6
CONTINUOUS
 62
    7
 10
-35.13706402643794
 20
12.000000000000028
 11
-35.13706402643794
 21
36.000000000000056
  0
LINE
  8
_0-0_0
  6
CONTINUOUS
 62
    7
 10
286.86293597356234
 20
285.00000000000011
 11
347.86293597356223
 21
285.00000000000011
  0
LINE
  8
_0-0_0
  6
CONTINUOUS
 62
    7
 10
347.86293597356223
 20
285.00000000000011
 11
347.86293597356223
 21
278.00000000000011
  0
LINE
  8
_0-0_0
  6
CONTINUOUS
 62
    7
 10
347.86293597356223
 20
278.00000000000011
 11
286.86293597356234
 21
278.00000000000011
  0
LINE
  8
_0-0_0
  6
CONTINUOUS
 62
    7
 10
286.86293597356234
 20
278.00000000000011
 11
286.86293597356234
 21
285.00000000000011
  0
LINE
  8
_0-0_0
  6
CONTINUOUS
 62
    7
 10
-35.13706402643794
 20
285.00000000000011
 11
347.86293597356223
 21
285.00000000000011
  0
LINE
  8
_0-0_0
  6
CONTINUOUS
 62
    7
 10
347.86293597356223
 20
285.00000000000011
 11
347.86293597356223
 21
11.999999999999829
  0
LINE
  8
_0-0_0
  6
CONTINUOUS
 62
    7
 10
347.86293597356223
 20
11.999999999999829
 11
-35.13706402643794
 21
11.999999999999829
  0
LINE
  8
_0-0_0
  6
CONTINUOUS
 62
    7
 10
-35.13706402643794
 20
11.999999999999829
 11
-35.13706402643794
 21
285.00000000000011
  0
ARC
  8
_0-0_0
  6
CONTINUOUS
 62
    7
 10
308.86856039308111
 20
269.12167981450346
 40
0.25
 50
180
 51
0
  0
ARC
  8
_0-0_0
  6
CONTINUOUS
 62
    7
 10
308.86856039308111
 20
269.12167981450346
 40
0.25
 50
0
 51
180
  0
ARC
  8
_0-0_0
  6
CONTINUOUS
 62
    7
 10
-5.7943982858915319
 20
269.12167981450346
 40
0.25
 50
0
 51
180
  0
ARC
  8
_0-0_0
  6
CONTINUOUS
 62
    7
 10
-5.7943982858915319
 20
269.12167981450346
 40
0.25
 50
180
 51
0
  0
ARC
  8
_0-0_0
  6
CONTINUOUS
 62
    7
 10
113.04401177386674
 20
196.74708784849528
 40
0.25
 50
270
 51
90
  0
ARC
  8
_0-0_0
  6
CONTINUOUS
 62
    7
 10
113.04401177386674
 20
196.74708784849528
 40
0.25
 50
90
 51
270
  0
ARC
  8
_0-0_0
  6
CONTINUOUS
 62
    7
 10
113.04401177386662
 20
177.74708784849539
 40
0.25
 50
90
 51
270
  0
ARC
  8
_0-0_0
  6
CONTINUOUS
 62
    7
 10
113.04401177386662
 20
177.74708784849539
 40
0.25
 50
270
 51
90
  0
ARC
  8
_0-0_0
  6
CONTINUOUS
 62
    7
 10
201.4346780021878
 20
82.91750173019443
 40
0.25
 50
270
 51
90
  0
ARC
  8
_0-0_0
  6
CONTINUOUS
 62
    7
 10
201.4346780021878
 20
82.91750173019443
 40
0.25
 50
90
 51
270
  0
ARC
  8
_0-0_0
  6
CONTINUOUS
 62
    7
 10
201.4346780021878
 20
62.91750173019443
 40
0.25
 50
90
 51
270
  0
ARC
  8
_0-0_0
  6
CONTINUOUS
 62
    7
 10
201.4346780021878
 20
62.91750173019443
 40
0.25
 50
270
 51
90
  0
ARC
  8
_0-0_0
  6
CONTINUOUS
 62
    7
 10
114.65334554554553
 20
101.41750173019418
 40
0.25
 50
270
 51
90
  0
ARC
  8
_0-0_0
  6
CONTINUOUS
 62
    7
 10
114.65334554554553
 20
101.41750173019418
 40
0.25
 50
90
 51
270
  0
ARC
  8
_0-0_0
  6
CONTINUOUS
 62
    7
 10
114.65334554554553
 20
82.91750173019443
 40
0.25
 50
90
 51
270
  0
ARC
  8
_0-0_0
  6
CONTINUOUS
 62
    7
 10
114.65334554554553
 20
82.91750173019443
 40
0.25
 50
270
 51
90
  0
ARC
  8
_0-0_0
  6
CONTINUOUS
 62
    7
 10
280.86856039308111
 20
196.74708784849528
 40
0.25
 50
90
 51
270
  0
ARC
  8
_0-0_0
  6
CONTINUOUS
 62
    7
 10
280.86856039308111
 20
196.74708784849528
 40
0.25
 50
270
 51
90
  0
ARC
  8
_0-0_0
  6
CONTINUOUS
 62
    7
 10
280.86856039308111
 20
247.74708784849539
 40
0.25
 50
270
 51
90
  0
ARC
  8
_0-0_0
  6
CONTINUOUS
 62
    7
 10
280.86856039308111
 20
247.74708784849539
 40
0.25
 50
90
 51
270
  0
ARC
  8
_0-0_0
  6
CONTINUOUS
 62
    7
 10
-15.876812951316082
 20
196.74708784849528
 40
0.25
 50
270
 51
90
  0
ARC
  8
_0-0_0
  6
CONTINUOUS
 62
    7
 10
-15.876812951316082
 20
196.74708784849528
 40
0.25
 50
90
 51
270
  0
ARC
  8
_0-0_0
  6
CONTINUOUS
 62
    7
 10
-15.876812951316082
 20
141.40778695026639
 40
0.25
 50
90
 51
270
  0
ARC
  8
_0-0_0
  6
CONTINUOUS
 62
    7
 10
-15.876812951316082
 20
141.40778695026639
 40
0.25
 50
270
 51
90
  0
ARC
  8
_0-0_0
  6
CONTINUOUS
 62
    7
 10
220.86856039308111
 20
140.74708784849539
 40
0.25
 50
180
 51
0
  0
ARC
  8
_0-0_0
  6
CONTINUOUS
 62
    7
 10
220.86856039308111
 20
140.74708784849539
 40
0.25
 50
0
 51
180
  0
ARC
  8
_0-0_0
  6
CONTINUOUS
 62
    7
 10
195.36856039308113
 20
140.74708784849539
 40
0.25
 50
0
 51
180
  0
ARC
  8
_0-0_0
  6
CONTINUOUS
 62
    7
 10
195.36856039308113
 20
140.74708784849539
 40
0.25
 50
180
 51
0
  0
ARC
  8
_0-0_0
  6
CONTINUOUS
 62
    7
 10
241.36856039308111
 20
140.74708784849539
 40
0.25
 50
180
 51
0
  0
ARC
  8
_0-0_0
  6
CONTINUOUS
 62
    7
 10
241.36856039308111
 20
140.74708784849539
 40
0.25
 50
0
 51
180
  0
ARC
  8
_0-0_0
  6
CONTINUOUS
 62
    7
 10
220.86856039308111
 20
140.74708784849539
 40
0.25
 50
0
 51
180
  0
ARC
  8
_0-0_0
  6
CONTINUOUS
 62
    7
 10
220.86856039308111
 20
140.74708784849539
 40
0.25
 50
180
 51
0
  0
ARC
  8
_0-0_0
  6
CONTINUOUS
 62
    7
 10
220.86856039308111
 20
132.74708784849539
 40
0.25
 50
180
 51
0
  0
ARC
  8
_0-0_0
  6
CONTINUOUS
 62
    7
 10
220.86856039308111
 20
132.74708784849539
 40
0.25
 50
0
 51
180
  0
ARC
  8
_0-0_0
  6
CONTINUOUS
 62
    7
 10
200.36856039308111
 20
132.74708784849539
 40
0.25
 50
0
 51
180
  0
ARC
  8
_0-0_0
  6
CONTINUOUS
 62
    7
 10
200.36856039308111
 20
132.74708784849539
 40
0.25
 50
180
 51
0
  0
ARC
  8
_0-0_0
  6
CONTINUOUS
 62
    7
 10
246.36856039308111
 20
132.74708784849539
 40
0.25
 50
180
 51
0
  0
ARC
  8
_0-0_0
  6
CONTINUOUS
 62
    7
 10
246.36856039308111
 20
132.74708784849539
 40
0.25
 50
0
 51
180
  0
ARC
  8
_0-0_0
  6
CONTINUOUS
 62
    7
 10
220.86856039308111
 20
132.74708784849539
 40
0.25
 50
0
 51
180
  0
ARC
  8
_0-0_0
  6
CONTINUOUS
 62
    7
 10
220.86856039308111
 20
132.74708784849539
 40
0.25
 50
180
 51
0
  0
ARC
  8
_0-0_0
  6
CONTINUOUS
 62
    7
 10
255.86856039308111
 20
124.74708784849538
 40
0.25
 50
180
 51
0
  0
ARC
  8
_0-0_0
  6
CONTINUOUS
 62
    7
 10
255.86856039308111
 20
124.74708784849538
 40
0.25
 50
0
 51
180
  0
ARC
  8
_0-0_0
  6
CONTINUOUS
 62
    7
 10
185.86856039308113
 20
124.74708784849538
 40
0.25
 50
0
 51
180
  0
ARC
  8
_0-0_0
  6
CONTINUOUS
 62
    7
 10
185.86856039308113
 20
124.74708784849538
 40
0.25
 50
180
 51
0
  0
ARC
  8
_0-0_0
  6
CONTINUOUS
 62
    7
 10
145.54401177386674
 20
209.93191593219819
 40
0.25
 50
180
 51
0
  0
ARC
  8
_0-0_0
  6
CONTINUOUS
 62
    7
 10
145.54401177386674
 20
209.93191593219819
 40
0.25
 50
0
 51
180
  0
ARC
  8
_0-0_0
  6
CONTINUOUS
 62
    7
 10
130.54401177386674
 20
209.93191593219819
 40
0.25
 50
0
 51
180
  0
ARC
  8
_0-0_0
  6
CONTINUOUS
 62
    7
 10
130.54401177386674
 20
209.93191593219819
 40
0.25
 50
180
 51
0
  0
ARC
  8
_0-0_0
  6
CONTINUOUS
 62
    7
 10
170.54401177386674
 20
209.93191593219819
 40
0.25
 50
180
 51
0
  0
ARC
  8
_0-0_0
  6
CONTINUOUS
 62
    7
 10
170.54401177386674
 20
209.93191593219819
 40
0.25
 50
0
 51
180
  0
ARC
  8
_0-0_0
  6
CONTINUOUS
 62
    7
 10
145.54401177386674
 20
209.93191593219819
 40
0.25
 50
0
 51
180
  0
ARC
  8
_0-0_0
  6
CONTINUOUS
 62
    7
 10
145.54401177386674
 20
209.93191593219819
 40
0.25
 50
180
 51
0
  0
ARC
  8
_0-0_0
  6
CONTINUOUS
 62
    7
 10
185.54401177386674
 20
209.93191593219819
 40
0.25
 50
180
 51
0
  0
ARC
  8
_0-0_0
  6
CONTINUOUS
 62
    7
 10
185.54401177386674
 20
209.93191593219819
 40
0.25
 50
0
 51
180
  0
ARC
  8
_0-0_0
  6
CONTINUOUS
 62
    7
 10
170.54401177386674
 20
209.93191593219819
 40
0.25
 50
0
 51
180
  0
ARC
  8
_0-0_0
  6
CONTINUOUS
 62
    7
 10
170.54401177386674
 20
209.93191593219819
 40
0.25
 50
180
 51
0
  0
ARC
  8
_0-0_0
  6
CONTINUOUS
 62
    7
 10
193.04401177386674
 20
219.93191593219827
 40
0.25
 50
180
 51
0
  0
ARC
  8
_0-0_0
  6
CONTINUOUS
 62
    7
 10
193.04401177386674
 20
219.93191593219827
 40
0.25
 50
0
 51
180
  0
ARC
  8
_0-0_0
  6
CONTINUOUS
 62
    7
 10
123.04401177386674
 20
219.93191593219827
 40
0.25
 50
0
 51
180
  0
ARC
  8
_0-0_0
  6
CONTINUOUS
 62
    7
 10
123.04401177386674
 20
219.93191593219827
 40
0.25
 50
180
 51
0
  0
ARC
  8
_0-0_0
  6
CONTINUOUS
 62
    7
 10
158.04401177386674
 20
262.74708784849536
 40
0.25
 50
0
 51
180
  0
ARC
  8
_0-0_0
  6
CONTINUOUS
 62
    7
 10
158.04401177386674
 20
262.74708784849536
 40
0.25
 50
180
 51
0
  0
ARC
  8
_0-0_0
  6
CONTINUOUS
 62
    7
 10
220.86856039308111
 20
262.74708784849536
 40
0.25
 50
180
 51
0
  0
ARC
  8
_0-0_0
  6
CONTINUOUS
 62
    7
 10
220.86856039308111
 20
262.74708784849536
 40
0.25
 50
0
 51
180
  0
ARC
  8
_0-0_0
  6
CONTINUOUS
 62
    7
 10
220.86856039308111
 20
262.74708784849536
 40
0.25
 50
0
 51
180
  0
ARC
  8
_0-0_0
  6
CONTINUOUS
 62
    7
 10
220.86856039308111
 20
262.74708784849536
 40
0.25
 50
180
 51
0
  0
ARC
  8
_0-0_0
  6
CONTINUOUS
 62
    7
 10
308.86856039308111
 20
262.74708784849536
 40
0.25
 50
180
 51
0
  0
ARC
  8
_0-0_0
  6
CONTINUOUS
 62
    7
 10
308.86856039308111
 20
262.74708784849536
 40
0.25
 50
0
 51
180
  0
ARC
  8
_0-0_0
  6
CONTINUOUS
 62
    7
 10
270.86856039308111
 20
167.74708784849539
 40
0.25
 50
90
 51
270
  0
ARC
  8
_0-0_0
  6
CONTINUOUS
 62
    7
 10
270.86856039308111
 20
167.74708784849539
 40
0.25
 50
270
 51
90
  0
ARC
  8
_0-0_0
  6
CONTINUOUS
 62
    7
 10
270.86856039308111
 20
172.74708784849539
 40
0.25
 50
270
 51
90
  0
ARC
  8
_0-0_0
  6
CONTINUOUS
 62
    7
 10
270.86856039308111
 20
172.74708784849539
 40
0.25
 50
90
 51
270
  0
ARC
  8
_0-0_0
  6
CONTINUOUS
 62
    7
 10
270.86856039308111
 20
157.74708784849539
 40
0.25
 50
90
 51
270
  0
ARC
  8
_0-0_0
  6
CONTINUOUS
 62
    7
 10
270.86856039308111
 20
157.74708784849539
 40
0.25
 50
270
 51
90
  0
ARC
  8
_0-0_0
  6
CONTINUOUS
 62
    7
 10
270.86856039308111
 20
167.74708784849539
 40
0.25
 50
270
 51
90
  0
ARC
  8
_0-0_0
  6
CONTINUOUS
 62
    7
 10
270.86856039308111
 20
167.74708784849539
 40
0.25
 50
90
 51
270
  0
ARC
  8
_0-0_0
  6
CONTINUOUS
 62
    7
 10
270.86856039308111
 20
152.74708784849539
 40
0.25
 50
90
 51
270
  0
ARC
  8
_0-0_0
  6
CONTINUOUS
 62
    7
 10
270.86856039308111
 20
152.74708784849539
 40
0.25
 50
270
 51
90
  0
ARC
  8
_0-0_0
  6
CONTINUOUS
 62
    7
 10
270.86856039308111
 20
157.74708784849539
 40
0.25
 50
270
 51
90
  0
ARC
  8
_0-0_0
  6
CONTINUOUS
 62
    7
 10
270.86856039308111
 20
157.74708784849539
 40
0.25
 50
90
 51
270
  0
ARC
  8
_0-0_0
  6
CONTINUOUS
 62
    7
 10
280.86856039308111
 20
152.74708784849539
 40
0.25
 50
90
 51
270
  0
ARC
  8
_0-0_0
  6
CONTINUOUS
 62
    7
 10
280.86856039308111
 20
152.74708784849539
 40
0.25
 50
270
 51
90
  0
ARC
  8
_0-0_0
  6
CONTINUOUS
 62
    7
 10
280.86856039308111
 20
172.74708784849539
 40
0.25
 50
270
 51
90
  0
ARC
  8
_0-0_0
  6
CONTINUOUS
 62
    7
 10
280.86856039308111
 20
172.74708784849539
 40
0.25
 50
90
 51
270
  0
ARC
  8
_0-0_0
  6
CONTINUOUS
 62
    7
 10
280.86856039308111
 20
196.74708784849528
 40
0.25
 50
270
 51
90
  0
ARC
  8
_0-0_0
  6
CONTINUOUS
 62
    7
 10
280.86856039308111
 20
196.74708784849528
 40
0.25
 50
90
 51
270
  0
ARC
  8
_0-0_0
  6
CONTINUOUS
 62
    7
 10
280.86856039308111
 20
172.74708784849539
 40
0.25
 50
90
 51
270
  0
ARC
  8
_0-0_0
  6
CONTINUOUS
 62
    7
 10
280.86856039308111
 20
172.74708784849539
 40
0.25
 50
270
 51
90
  0
ARC
  8
_0-0_0
  6
CONTINUOUS
 62
    7
 10
265.86856039308105
 20
101.41750173019418
 40
0.25
 50
270
 51
90
  0
ARC
  8
_0-0_0
  6
CONTINUOUS
 62
    7
 10
265.86856039308105
 20
101.41750173019418
 40
0.25
 50
90
 51
270
  0
ARC
  8
_0-0_0
  6
CONTINUOUS
 62
    7
 10
265.86856039308105
 20
72.917501730194359
 40
0.25
 50
90
 51
270
  0
ARC
  8
_0-0_0
  6
CONTINUOUS
 62
    7
 10
265.86856039308105
 20
72.917501730194359
 40
0.25
 50
270
 51
90
  0
ARC
  8
_0-0_0
  6
CONTINUOUS
 62
    7
 10
193.04401177386674
 20
52.285462978940756
 40
0.25
 50
0
 51
180
  0
ARC
  8
_0-0_0
  6
CONTINUOUS
 62
    7
 10
193.04401177386674
 20
52.285462978940756
 40
0.25
 50
180
 51
0
  0
ARC
  8
_0-0_0
  6
CONTINUOUS
 62
    7
 10
185.54401177386674
 20
52.285462978940756
 40
0.25
 50
180
 51
0
  0
ARC
  8
_0-0_0
  6
CONTINUOUS
 62
    7
 10
185.54401177386674
 20
52.285462978940756
 40
0.25
 50
0
 51
180
  0
ARC
  8
_0-0_0
  6
CONTINUOUS
 62
    7
 10
185.54401177386674
 20
52.285462978940756
 40
0.25
 50
180
 51
0
  0
ARC
  8
_0-0_0
  6
CONTINUOUS
 62
    7
 10
185.54401177386674
 20
52.285462978940756
 40
0.25
 50
0
 51
180
  0
ARC
  8
_0-0_0
  6
CONTINUOUS
 62
    7
 10
170.54401177386674
 20
52.285462978940756
 40
0.25
 50
0
 51
180
  0
ARC
  8
_0-0_0
  6
CONTINUOUS
 62
    7
 10
170.54401177386674
 20
52.285462978940756
 40
0.25
 50
180
 51
0
  0
ARC
  8
_0-0_0
  6
CONTINUOUS
 62
    7
 10
170.54401177386674
 20
52.285462978940756
 40
0.25
 50
180
 51
0
  0
ARC
  8
_0-0_0
  6
CONTINUOUS
 62
    7
 10
170.54401177386674
 20
52.285462978940756
 40
0.25
 50
0
 51
180
  0
ARC
  8
_0-0_0
  6
CONTINUOUS
 62
    7
 10
145.54401177386674
 20
52.285462978940756
 40
0.25
 50
0
 51
180
  0
ARC
  8
_0-0_0
  6
CONTINUOUS
 62
    7
 10
145.54401177386674
 20
52.285462978940756
 40
0.25
 50
180
 51
0
  0
ARC
  8
_0-0_0
  6
CONTINUOUS
 62
    7
 10
145.54401177386674
 20
52.285462978940756
 40
0.25
 50
180
 51
0
  0
ARC
  8
_0-0_0
  6
CONTINUOUS
 62
    7
 10
145.54401177386674
 20
52.285462978940756
 40
0.25
 50
0
 51
180
  0
ARC
  8
_0-0_0
  6
CONTINUOUS
 62
    7
 10
130.54401177386674
 20
52.285462978940756
 40
0.25
 50
0
 51
180
  0
ARC
  8
_0-0_0
  6
CONTINUOUS
 62
    7
 10
130.54401177386674
 20
52.285462978940756
 40
0.25
 50
180
 51
0
  0
ARC
  8
_0-0_0
  6
CONTINUOUS
 62
    7
 10
130.54401177386674
 20
52.285462978940756
 40
0.25
 50
0
 51
180
  0
ARC
  8
_0-0_0
  6
CONTINUOUS
 62
    7
 10
130.54401177386674
 20
52.285462978940756
 40
0.25
 50
180
 51
0
  0
ARC
  8
_0-0_0
  6
CONTINUOUS
 62
    7
 10
123.04401177386674
 20
52.285462978940756
 40
0.25
 50
180
 51
0
  0
ARC
  8
_0-0_0
  6
CONTINUOUS
 62
    7
 10
123.04401177386674
 20
52.285462978940756
 40
0.25
 50
0
 51
180
  0
ARC
  8
_0-0_0
  6
CONTINUOUS
 62
    7
 10
193.04401177386674
 20
42.984529418564704
 40
0.25
 50
180
 51
0
  0
ARC
  8
_0-0_0
  6
CONTINUOUS
 62
    7
 10
193.04401177386674
 20
42.984529418564704
 40
0.25
 50
0
 51
180
  0
ARC
  8
_0-0_0
  6
CONTINUOUS
 62
    7
 10
123.04401177386674
 20
42.984529418564704
 40
0.25
 50
0
 51
180
  0
ARC
  8
_0-0_0
  6
CONTINUOUS
 62
    7
 10
123.04401177386674
 20
42.984529418564704
 40
0.25
 50
180
 51
0
  0
ARC
  8
_0-0_0
  6
CONTINUOUS
 62
    7
 10
152.09196159925392
 20
201.40409893926329
 40
0.2500000000000027
 50
194.12236905710921
 51
14.122369057109267
  0
ARC
  8
_0-0_0
  6
CONTINUOUS
 62
    7
 10
152.09196159925392
 20
201.40409893926329
 40
0.2500000000000027
 50
14.122369057109281
 51
194.12236905710923
  0
ARC
  8
_0-0_0
  6
CONTINUOUS
 62
    7
 10
45.416510218469113
 20
174.56479804103148
 40
0.2500000000000027
 50
14.122369057109281
 51
194.12236905710923
  0
ARC
  8
_0-0_0
  6
CONTINUOUS
 62
    7
 10
45.416510218469113
 20
174.56479804103148
 40
0.2500000000000027
 50
194.12236905710921
 51
14.122369057109267
  0
ARC
  8
_0-0_0
  6
CONTINUOUS
 62
    7
 10
220.86856039308111
 20
116.90778695026638
 40
0.25
 50
180
 51
0
  0
ARC
  8
_0-0_0
  6
CONTINUOUS
 62
    7
 10
220.86856039308111
 20
116.90778695026638
 40
0.25
 50
0
 51
180
  0
ARC
  8
_0-0_0
  6
CONTINUOUS
 62
    7
 10
51.368560393081224
 20
116.90778695026638
 40
0.25
 50
0
 51
180
  0
ARC
  8
_0-0_0
  6
CONTINUOUS
 62
    7
 10
51.368560393081224
 20
116.90778695026638
 40
0.25
 50
180
 51
0
  0
ARC
  8
_0-0_0
  6
CONTINUOUS
 62
    7
 10
64.116020392235327
 20
69.441761378269518
 40
0.25
 50
90
 51
270
  0
ARC
  8
_0-0_0
  6
CONTINUOUS
 62
    7
 10
64.116020392235327
 20
69.441761378269518
 40
0.25
 50
270
 51
90
  0
ARC
  8
_0-0_0
  6
CONTINUOUS
 62
    7
 10
64.116020392235327
 20
67.441761378269518
 40
0.25
 50
270
 51
90
  0
ARC
  8
_0-0_0
  6
CONTINUOUS
 62
    7
 10
64.116020392235327
 20
67.441761378269518
 40
0.25
 50
90
 51
270
  0
ARC
  8
_0-0_0
  6
CONTINUOUS
 62
    7
 10
64.116020392235327
 20
78.417501730194359
 40
0.25
 50
90
 51
270
  0
ARC
  8
_0-0_0
  6
CONTINUOUS
 62
    7
 10
64.116020392235327
 20
78.417501730194359
 40
0.25
 50
270
 51
90
  0
ARC
  8
_0-0_0
  6
CONTINUOUS
 62
    7
 10
64.116020392235327
 20
76.417501730194373
 40
0.25
 50
270
 51
90
  0
ARC
  8
_0-0_0
  6
CONTINUOUS
 62
    7
 10
64.116020392235327
 20
76.417501730194373
 40
0.25
 50
90
 51
270
  0
ARC
  8
_0-0_0
  6
CONTINUOUS
 62
    7
 10
275.86856039308105
 20
101.41750173019438
 40
0.25
 50
270
 51
90
  0
ARC
  8
_0-0_0
  6
CONTINUOUS
 62
    7
 10
275.86856039308105
 20
101.41750173019438
 40
0.25
 50
90
 51
270
  0
ARC
  8
_0-0_0
  6
CONTINUOUS
 62
    7
 10
275.86856039308105
 20
62.917501730194402
 40
0.25
 50
90
 51
270
  0
ARC
  8
_0-0_0
  6
CONTINUOUS
 62
    7
 10
275.86856039308105
 20
62.917501730194402
 40
0.25
 50
270
 51
90
  0
ARC
  8
_0-0_0
  6
CONTINUOUS
 62
    7
 10
238.86856039308111
 20
70.917501730194359
 40
0.25
 50
270
 51
90
  0
ARC
  8
_0-0_0
  6
CONTINUOUS
 62
    7
 10
238.86856039308111
 20
70.917501730194359
 40
0.25
 50
90
 51
270
  0
ARC
  8
_0-0_0
  6
CONTINUOUS
 62
    7
 10
238.86856039308111
 20
74.917501730194373
 40
0.25
 50
90
 51
270
  0
ARC
  8
_0-0_0
  6
CONTINUOUS
 62
    7
 10
238.86856039308111
 20
74.917501730194373
 40
0.25
 50
270
 51
90
  0
LINE
  8
_0-0_0
  6
CONTINUOUS
 62
    7
 10
-30.10537338233118
 20
278.89611510310419
 11
-30.11713597224849
 21
278.8020143837661
  0
LINE
  8
_0-0_0
  6
CONTINUOUS
 62
    7
 10
-30.11713597224849
 20
278.8020143837661
 11
-30.517064029435772
 21
278.44913668624781
  0
LINE
  8
_0-0_0
  6
CONTINUOUS
 62
    7
 10
-30.517064029435772
 20
278.44913668624781
 11
-31.305157553893138
 21
277.77866906096318
  0
LINE
  8
_0-0_0
  6
CONTINUOUS
 62
    7
 10
-31.305157553893138
 20
277.77866906096318
 11
-31.528646762321358
 21
277.6139928021214
  0
LINE
  8
_0-0_0
  6
CONTINUOUS
 62
    7
 10
-31.528646762321358
 20
277.6139928021214
 11
-32.163826617854141
 21
277.07291366592676
  0
LINE
  8
_0-0_0
  6
CONTINUOUS
 62
    7
 10
-32.163826617854141
 20
277.07291366592676
 11
-32.375553236365078
 21
276.825899277664
  0
LINE
  8
_0-0_0
  6
CONTINUOUS
 62
    7
 10
-32.375553236365078
 20
276.825899277664
 11
-32.42260359603415
 21
276.59064747931847
  0
LINE
  8
_0-0_0
  6
CONTINUOUS
 62
    7
 10
-32.42260359603415
 20
276.59064747931847
 11
-32.363790646447768
 21
276.37892086080756
  0
LINE
  8
_0-0_0
  6
CONTINUOUS
 62
    7
 10
-32.363790646447768
 20
276.37892086080756
 11
-32.187351797688677
 21
276.21424460196578
  0
LINE
  8
_0-0_0
  6
CONTINUOUS
 62
    7
 10
-32.187351797688677
 20
276.21424460196578
 11
-31.881524459839539
 21
276.21424460196578
  0
LINE
  8
_0-0_0
  6
CONTINUOUS
 62
    7
 10
-31.881524459839539
 20
276.21424460196578
 11
-31.66979784132863
 21
276.32010791122121
  0
LINE
  8
_0-0_0
  6
CONTINUOUS
 62
    7
 10
-31.66979784132863
 20
276.32010791122121
 11
-30.305337410924835
 21
277.4493165432795
  0
LINE
  8
_0-0_0
  6
CONTINUOUS
 62
    7
 10
-30.305337410924835
 20
277.4493165432795
 11
-29.670157555392052
 21
277.80219424079768
  0
LINE
  8
_0-0_0
  6
CONTINUOUS
 62
    7
 10
-29.670157555392052
 20
277.80219424079768
 11
-29.258466908287459
 21
277.8845323702186
  0
LINE
  8
_0-0_0
  6
CONTINUOUS
 62
    7
 10
-29.258466908287459
 20
277.8845323702186
 11
-29.023215109941986
 21
277.8845323702186
  0
LINE
  8
_0-0_0
  6
CONTINUOUS
 62
    7
 10
-29.023215109941986
 20
277.8845323702186
 11
-28.811488491431049
 21
277.77866906096318
  0
LINE
  8
_0-0_0
  6
CONTINUOUS
 62
    7
 10
-28.811488491431049
 20
277.77866906096318
 11
-28.493898563664657
 21
277.425791363445
  0
LINE
  8
_0-0_0
  6
CONTINUOUS
 62
    7
 10
-28.493898563664657
 20
277.425791363445
 11
-28.458610793912839
 21
277.19053956509947
  0
LINE
  8
_0-0_0
  6
CONTINUOUS
 62
    7
 10
-28.458610793912839
 20
277.19053956509947
 11
-28.470373383830121
 21
276.83766186758128
  0
LINE
  8
_0-0_0
  6
CONTINUOUS
 62
    7
 10
-28.470373383830121
 20
276.83766186758128
 11
-28.752675541844695
 21
276.35539568097306
  0
LINE
  8
_0-0_0
  6
CONTINUOUS
 62
    7
 10
-28.752675541844695
 20
276.35539568097306
 11
-28.90558921076925
 21
276.15543165237937
  0
LINE
  8
_0-0_0
  6
CONTINUOUS
 62
    7
 10
-28.90558921076925
 20
276.15543165237937
 11
-31.022855395878565
 21
274.3910431647883
  0
LINE
  8
_0-0_0
  6
CONTINUOUS
 62
    7
 10
-31.022855395878565
 20
274.3910431647883
 11
-31.552171942155894
 21
273.96758992776636
  0
LINE
  8
_0-0_0
  6
CONTINUOUS
 62
    7
 10
-31.552171942155894
 20
273.96758992776636
 11
-31.634510071576812
 21
273.96758992776636
  0
LINE
  8
_0-0_0
  6
CONTINUOUS
 62
    7
 10
-31.634510071576812
 20
273.96758992776636
 11
-31.846236690087749
 21
274.20284172611189
  0
LINE
  8
_0-0_0
  6
CONTINUOUS
 62
    7
 10
-31.846236690087749
 20
274.20284172611189
 11
-31.834474100170467
 21
274.29694244545009
  0
LINE
  8
_0-0_0
  6
CONTINUOUS
 62
    7
 10
-31.834474100170467
 20
274.29694244545009
 11
-31.281632374058574
 21
274.77920863205827
  0
LINE
  8
_0-0_0
  6
CONTINUOUS
 62
    7
 10
-31.281632374058574
 20
274.77920863205827
 11
-30.787603597533092
 21
275.17913668924569
  0
LINE
  8
_0-0_0
  6
CONTINUOUS
 62
    7
 10
-30.787603597533092
 20
275.17913668924569
 11
-30.19947410166938
 21
275.68492805568848
  0
LINE
  8
_0-0_0
  6
CONTINUOUS
 62
    7
 10
-30.19947410166938
 20
275.68492805568848
 11
-29.658394965474769
 21
276.14366906246209
  0
LINE
  8
_0-0_0
  6
CONTINUOUS
 62
    7
 10
-29.658394965474769
 20
276.14366906246209
 11
-29.470193526798396
 21
276.42597122047669
  0
LINE
  8
_0-0_0
  6
CONTINUOUS
 62
    7
 10
-29.470193526798396
 20
276.42597122047669
 11
-29.470193526798396
 21
276.72003596840846
  0
LINE
  8
_0-0_0
  6
CONTINUOUS
 62
    7
 10
-29.470193526798396
 20
276.72003596840846
 11
-29.552531656219315
 21
276.86118704741579
  0
LINE
  8
_0-0_0
  6
CONTINUOUS
 62
    7
 10
-29.552531656219315
 20
276.86118704741579
 11
-29.717207915061152
 21
276.97881294658856
  0
LINE
  8
_0-0_0
  6
CONTINUOUS
 62
    7
 10
-29.717207915061152
 20
276.97881294658856
 11
-30.02303525291029
 21
276.97881294658856
  0
LINE
  8
_0-0_0
  6
CONTINUOUS
 62
    7
 10
-30.02303525291029
 20
276.97881294658856
 11
-30.317100000842117
 21
276.825899277664
  0
LINE
  8
_0-0_0
  6
CONTINUOUS
 62
    7
 10
-30.317100000842117
 20
276.825899277664
 11
-31.105193525299483
 21
276.19071942213128
  0
LINE
  8
_0-0_0
  6
CONTINUOUS
 62
    7
 10
-31.105193525299483
 20
276.19071942213128
 11
-31.458071222817693
 21
275.9201798540339
  0
LINE
  8
_0-0_0
  6
CONTINUOUS
 62
    7
 10
-31.458071222817693
 20
275.9201798540339
 11
-31.869761869922285
 21
275.56730215651566
  0
LINE
  8
_0-0_0
  6
CONTINUOUS
 62
    7
 10
-31.869761869922285
 20
275.56730215651566
 11
-32.06972589851594
 21
275.42615107750839
  0
LINE
  8
_0-0_0
  6
CONTINUOUS
 62
    7
 10
-32.06972589851594
 20
275.42615107750839
 11
-32.493179135537786
 21
275.2967625884184
  0
LINE
  8
_0-0_0
  6
CONTINUOUS
 62
    7
 10
-32.493179135537786
 20
275.2967625884184
 11
-32.704905754048752
 21
275.2967625884184
  0
LINE
  8
_0-0_0
  6
CONTINUOUS
 62
    7
 10
-32.704905754048752
 20
275.2967625884184
 11
-33.104833811236062
 21
275.42615107750839
  0
LINE
  8
_0-0_0
  6
CONTINUOUS
 62
    7
 10
-33.104833811236062
 20
275.42615107750839
 11
-33.422423739002454
 21
275.77902877502668
  0
LINE
  8
_0-0_0
  6
CONTINUOUS
 62
    7
 10
-33.422423739002454
 20
275.77902877502668
 11
-33.481236688588808
 21
275.9201798540339
  0
LINE
  8
_0-0_0
  6
CONTINUOUS
 62
    7
 10
-33.481236688588808
 20
275.9201798540339
 11
-33.481236688588808
 21
276.19071942213128
  0
LINE
  8
_0-0_0
  6
CONTINUOUS
 62
    7
 10
-33.481236688588808
 20
276.19071942213128
 11
-33.351848199498789
 21
276.43773381039397
  0
LINE
  8
_0-0_0
  6
CONTINUOUS
 62
    7
 10
-33.351848199498789
 20
276.43773381039397
 11
-33.245984890243335
 21
276.66122301882217
  0
LINE
  8
_0-0_0
  6
CONTINUOUS
 62
    7
 10
-33.245984890243335
 20
276.66122301882217
 11
-32.634330214545087
 21
277.31992805418946
  0
LINE
  8
_0-0_0
  6
CONTINUOUS
 62
    7
 10
-32.634330214545087
 20
277.31992805418946
 11
-32.457891365785968
 21
277.43755395336228
  0
LINE
  8
_0-0_0
  6
CONTINUOUS
 62
    7
 10
-32.457891365785968
 20
277.43755395336228
 11
-31.893287049756821
 21
277.90805755005317
  0
LINE
  8
_0-0_0
  6
CONTINUOUS
 62
    7
 10
-31.893287049756821
 20
277.90805755005317
 11
-31.22281942447222
 21
278.47266186608237
  0
LINE
  8
_0-0_0
  6
CONTINUOUS
 62
    7
 10
-31.22281942447222
 20
278.47266186608237
 11
-30.611164748773973
 21
279.00197841235967
  0
LINE
  8
_0-0_0
  6
CONTINUOUS
 62
    7
 10
-30.611164748773973
 20
279.00197841235967
 11
-30.375912950428499
 21
279.15489208128417
  0
LINE
  8
_0-0_0
  6
CONTINUOUS
 62
    7
 10
-30.375912950428499
 20
279.15489208128417
 11
-30.293574821007581
 21
279.143129491367
  0
LINE
  8
_0-0_0
  6
CONTINUOUS
 62
    7
 10
-30.293574821007581
 20
279.143129491367
 11
-30.10537338233118
 21
278.89611510310419
  0
LINE
  8
_0-0_0
  6
CONTINUOUS
 62
    7
 10
-24.953358998565221
 20
281.53093524457358
 11
-24.835733099392484
 21
281.23687049664169
  0
LINE
  8
_0-0_0
  6
CONTINUOUS
 62
    7
 10
-24.835733099392484
 20
281.23687049664169
 11
-24.306416553115155
 21
280.09589927466618
  0
LINE
  8
_0-0_0
  6
CONTINUOUS
 62
    7
 10
-24.306416553115155
 20
280.09589927466618
 11
-24.165265474107854
 21
279.77830934689978
  0
LINE
  8
_0-0_0
  6
CONTINUOUS
 62
    7
 10
-24.165265474107854
 20
279.77830934689978
 11
-24.118215114438783
 21
279.47248200905056
  0
LINE
  8
_0-0_0
  6
CONTINUOUS
 62
    7
 10
-24.118215114438783
 20
279.47248200905056
 11
-24.235841013611519
 21
279.03726618211146
  0
LINE
  8
_0-0_0
  6
CONTINUOUS
 62
    7
 10
-24.235841013611519
 20
279.03726618211146
 11
-24.482855401874246
 21
278.70791366442779
  0
LINE
  8
_0-0_0
  6
CONTINUOUS
 62
    7
 10
-24.482855401874246
 20
278.70791366442779
 11
-24.671056840550647
 21
278.53147481566878
  0
LINE
  8
_0-0_0
  6
CONTINUOUS
 62
    7
 10
-24.671056840550647
 20
278.53147481566878
 11
-25.023934538068857
 21
278.27269783748869
  0
LINE
  8
_0-0_0
  6
CONTINUOUS
 62
    7
 10
-25.023934538068857
 20
278.27269783748869
 11
-25.941416551616214
 21
277.79043165088046
  0
LINE
  8
_0-0_0
  6
CONTINUOUS
 62
    7
 10
-25.941416551616214
 20
277.79043165088046
 11
-26.235481299548069
 21
277.68456834162498
  0
LINE
  8
_0-0_0
  6
CONTINUOUS
 62
    7
 10
-26.235481299548069
 20
277.68456834162498
 11
-26.45897050797626
 21
277.56694244245227
  0
LINE
  8
_0-0_0
  6
CONTINUOUS
 62
    7
 10
-26.45897050797626
 20
277.56694244245227
 11
-27.200013672764555
 21
277.41402877352766
  0
LINE
  8
_0-0_0
  6
CONTINUOUS
 62
    7
 10
-27.200013672764555
 20
277.41402877352766
 11
-27.776380578710956
 21
277.4493165432795
  0
LINE
  8
_0-0_0
  6
CONTINUOUS
 62
    7
 10
-27.776380578710956
 20
277.4493165432795
 11
-28.19983381573283
 21
277.67280575170781
  0
LINE
  8
_0-0_0
  6
CONTINUOUS
 62
    7
 10
-28.19983381573283
 20
277.67280575170781
 11
-28.364510074574639
 21
277.896294960136
  0
LINE
  8
_0-0_0
  6
CONTINUOUS
 62
    7
 10
-28.364510074574639
 20
277.896294960136
 11
-28.470373383830121
 21
278.11978416856419
  0
LINE
  8
_0-0_0
  6
CONTINUOUS
 62
    7
 10
-28.470373383830121
 20
278.11978416856419
 11
-28.59976187292014
 21
278.35503596690961
  0
LINE
  8
_0-0_0
  6
CONTINUOUS
 62
    7
 10
-28.59976187292014
 20
278.35503596690961
 11
-28.893826620851967
 21
279.0137410022769
  0
LINE
  8
_0-0_0
  6
CONTINUOUS
 62
    7
 10
-28.893826620851967
 20
279.0137410022769
 11
-29.176128778866569
 21
279.53129495863697
  0
LINE
  8
_0-0_0
  6
CONTINUOUS
 62
    7
 10
-29.176128778866569
 20
279.53129495863697
 11
-29.281992088122024
 21
279.79007193681701
  0
LINE
  8
_0-0_0
  6
CONTINUOUS
 62
    7
 10
-29.281992088122024
 20
279.79007193681701
 11
-29.234941728452923
 21
279.89593524607249
  0
LINE
  8
_0-0_0
  6
CONTINUOUS
 62
    7
 10
-29.234941728452923
 20
279.89593524607249
 11
-28.493898563664657
 21
280.23705035367351
  0
LINE
  8
_0-0_0
  6
CONTINUOUS
 62
    7
 10
-28.493898563664657
 20
280.23705035367351
 11
-28.411560434243739
 21
280.23705035367351
  0
LINE
  8
_0-0_0
  6
CONTINUOUS
 62
    7
 10
-28.411560434243739
 20
280.23705035367351
 11
-28.19983381573283
 21
279.82535970656886
  0
LINE
  8
_0-0_0
  6
CONTINUOUS
 62
    7
 10
-28.19983381573283
 20
279.82535970656886
 11
-28.011632377056429
 21
279.37838128971236
  0
LINE
  8
_0-0_0
  6
CONTINUOUS
 62
    7
 10
-28.011632377056429
 20
279.37838128971236
 11
-27.894006477883692
 21
279.19017985103607
  0
LINE
  8
_0-0_0
  6
CONTINUOUS
 62
    7
 10
-27.894006477883692
 20
279.19017985103607
 11
-27.658754679538219
 21
278.71967625434518
  0
LINE
  8
_0-0_0
  6
CONTINUOUS
 62
    7
 10
-27.658754679538219
 20
278.71967625434518
 11
-27.552891370282736
 21
278.47266186608237
  0
LINE
  8
_0-0_0
  6
CONTINUOUS
 62
    7
 10
-27.552891370282736
 20
278.47266186608237
 11
-27.411740291275464
 21
278.23741006773678
  0
LINE
  8
_0-0_0
  6
CONTINUOUS
 62
    7
 10
-27.411740291275464
 20
278.23741006773678
 11
-27.188251082847273
 21
278.09625898872957
  0
LINE
  8
_0-0_0
  6
CONTINUOUS
 62
    7
 10
-27.188251082847273
 20
278.09625898872957
 11
-26.952999284501771
 21
278.072733808895
  0
LINE
  8
_0-0_0
  6
CONTINUOUS
 62
    7
 10
-26.952999284501771
 20
278.072733808895
 11
-26.494258277728107
 21
278.08449639881229
  0
LINE
  8
_0-0_0
  6
CONTINUOUS
 62
    7
 10
-26.494258277728107
 20
278.08449639881229
 11
-26.317819428968988
 21
278.15507193831587
  0
LINE
  8
_0-0_0
  6
CONTINUOUS
 62
    7
 10
-26.317819428968988
 20
278.15507193831587
 11
-26.117855400375333
 21
278.20212229798511
  0
LINE
  8
_0-0_0
  6
CONTINUOUS
 62
    7
 10
-26.117855400375333
 20
278.20212229798511
 11
-25.647351803684387
 21
278.43737409633058
  0
LINE
  8
_0-0_0
  6
CONTINUOUS
 62
    7
 10
-25.647351803684387
 20
278.43737409633058
 11
-25.235661156579794
 21
278.79025179384871
  0
LINE
  8
_0-0_0
  6
CONTINUOUS
 62
    7
 10
-25.235661156579794
 20
278.79025179384871
 11
-25.08274748765524
 21
279.11960431153238
  0
LINE
  8
_0-0_0
  6
CONTINUOUS
 62
    7
 10
-25.08274748765524
 20
279.11960431153238
 11
-25.106272667489776
 21
279.44895682921605
  0
LINE
  8
_0-0_0
  6
CONTINUOUS
 62
    7
 10
-25.106272667489776
 20
279.44895682921605
 11
-25.341524465835249
 21
280.00179855532786
  0
LINE
  8
_0-0_0
  6
CONTINUOUS
 62
    7
 10
-25.341524465835249
 20
280.00179855532786
 11
-25.48267554484255
 21
280.33115107301159
  0
LINE
  8
_0-0_0
  6
CONTINUOUS
 62
    7
 10
-25.48267554484255
 20
280.33115107301159
 11
-25.941416551616214
 21
281.23687049664169
  0
LINE
  8
_0-0_0
  6
CONTINUOUS
 62
    7
 10
-25.941416551616214
 20
281.23687049664169
 11
-25.964941731450778
 21
281.35449639581446
  0
LINE
  8
_0-0_0
  6
CONTINUOUS
 62
    7
 10
-25.964941731450778
 20
281.35449639581446
 11
-25.941416551616214
 21
281.4250719353181
  0
LINE
  8
_0-0_0
  6
CONTINUOUS
 62
    7
 10
-25.941416551616214
 20
281.4250719353181
 11
-25.576776264180722
 21
281.58974819415988
  0
LINE
  8
_0-0_0
  6
CONTINUOUS
 62
    7
 10
-25.576776264180722
 20
281.58974819415988
 11
-25.341524465835249
 21
281.73089927316721
  0
LINE
  8
_0-0_0
  6
CONTINUOUS
 62
    7
 10
-25.341524465835249
 20
281.73089927316721
 11
-25.16508561707613
 21
281.8014748126709
  0
LINE
  8
_0-0_0
  6
CONTINUOUS
 62
    7
 10
-25.16508561707613
 20
281.8014748126709
 11
-25.106272667489776
 21
281.77794963283628
  0
LINE
  8
_0-0_0
  6
CONTINUOUS
 62
    7
 10
-25.106272667489776
 20
281.77794963283628
 11
-24.953358998565221
 21
281.53093524457358
  0
LINE
  8
_0-0_0
  6
CONTINUOUS
 62
    7
 10
-20.083646772813835
 20
282.6719064665491
 11
-20.083646772813835
 21
282.48370502787275
  0
LINE
  8
_0-0_0
  6
CONTINUOUS
 62
    7
 10
-20.083646772813835
 20
282.48370502787275
 11
-20.177747492152008
 21
282.43665466820368
  0
LINE
  8
_0-0_0
  6
CONTINUOUS
 62
    7
 10
-20.177747492152008
 20
282.43665466820368
 11
-20.554150369504782
 21
282.37784171861727
  0
LINE
  8
_0-0_0
  6
CONTINUOUS
 62
    7
 10
-20.554150369504782
 20
282.37784171861727
 11
-21.224617994789383
 21
282.26021581944451
  0
LINE
  8
_0-0_0
  6
CONTINUOUS
 62
    7
 10
-21.224617994789383
 20
282.26021581944451
 11
-21.424582023383038
 21
282.23669063961
  0
LINE
  8
_0-0_0
  6
CONTINUOUS
 62
    7
 10
-21.424582023383038
 20
282.23669063961
 11
-22.200912957923122
 21
282.08377697068539
  0
LINE
  8
_0-0_0
  6
CONTINUOUS
 62
    7
 10
-22.200912957923122
 20
282.08377697068539
 11
-22.424402166351342
 21
281.97791366142996
  0
LINE
  8
_0-0_0
  6
CONTINUOUS
 62
    7
 10
-22.424402166351342
 20
281.97791366142996
 11
-22.718466914283169
 21
281.77794963283628
  0
LINE
  8
_0-0_0
  6
CONTINUOUS
 62
    7
 10
-22.718466914283169
 20
281.77794963283628
 11
-22.836092813455934
 21
281.5544604244082
  0
LINE
  8
_0-0_0
  6
CONTINUOUS
 62
    7
 10
-22.836092813455934
 20
281.5544604244082
 11
-22.894905763042288
 21
281.23687049664169
  0
LINE
  8
_0-0_0
  6
CONTINUOUS
 62
    7
 10
-22.894905763042288
 20
281.23687049664169
 11
-22.847855403373188
 21
281.09571941763437
  0
LINE
  8
_0-0_0
  6
CONTINUOUS
 62
    7
 10
-22.847855403373188
 20
281.09571941763437
 11
-22.730229504200451
 21
281.0133812882135
  0
LINE
  8
_0-0_0
  6
CONTINUOUS
 62
    7
 10
-22.730229504200451
 20
281.0133812882135
 11
-22.530265475606796
 21
281.02514387813079
  0
LINE
  8
_0-0_0
  6
CONTINUOUS
 62
    7
 10
-22.530265475606796
 20
281.02514387813079
 11
-22.295013677261295
 21
281.07219423779986
  0
LINE
  8
_0-0_0
  6
CONTINUOUS
 62
    7
 10
-22.295013677261295
 20
281.07219423779986
 11
-21.648071231811229
 21
281.20158272688991
  0
LINE
  8
_0-0_0
  6
CONTINUOUS
 62
    7
 10
-21.648071231811229
 20
281.20158272688991
 11
-20.165984902234754
 21
281.47212229498728
  0
LINE
  8
_0-0_0
  6
CONTINUOUS
 62
    7
 10
-20.165984902234754
 20
281.47212229498728
 11
-19.966020873641099
 21
281.49564747482168
  0
LINE
  8
_0-0_0
  6
CONTINUOUS
 62
    7
 10
-19.966020873641099
 20
281.49564747482168
 11
-19.907207924054716
 21
281.49564747482168
  0
LINE
  8
_0-0_0
  6
CONTINUOUS
 62
    7
 10
-19.907207924054716
 20
281.49564747482168
 11
-19.83663238455108
 21
281.35449639581446
  0
LINE
  8
_0-0_0
  6
CONTINUOUS
 62
    7
 10
-19.83663238455108
 20
281.35449639581446
 11
-19.824869794633798
 21
281.18982013697257
  0
LINE
  8
_0-0_0
  6
CONTINUOUS
 62
    7
 10
-19.824869794633798
 20
281.18982013697257
 11
-19.83663238455108
 21
281.14276977730361
  0
LINE
  8
_0-0_0
  6
CONTINUOUS
 62
    7
 10
-19.83663238455108
 20
281.14276977730361
 11
-19.954258283723817
 21
281.08395682771708
  0
LINE
  8
_0-0_0
  6
CONTINUOUS
 62
    7
 10
-19.954258283723817
 20
281.08395682771708
 11
-20.789402167850255
 21
280.94280574870987
  0
LINE
  8
_0-0_0
  6
CONTINUOUS
 62
    7
 10
-20.789402167850255
 20
280.94280574870987
 11
-21.612783462059411
 21
280.78989207978526
  0
LINE
  8
_0-0_0
  6
CONTINUOUS
 62
    7
 10
-21.612783462059411
 20
280.78989207978526
 11
-21.930373389825831
 21
280.76636689995081
  0
LINE
  8
_0-0_0
  6
CONTINUOUS
 62
    7
 10
-21.930373389825831
 20
280.76636689995081
 11
-22.342064036930423
 21
280.67226618061249
  0
LINE
  8
_0-0_0
  6
CONTINUOUS
 62
    7
 10
-22.342064036930423
 20
280.67226618061249
 11
-22.63612878486225
 21
280.62521582094348
  0
LINE
  8
_0-0_0
  6
CONTINUOUS
 62
    7
 10
-22.63612878486225
 20
280.62521582094348
 11
-22.730229504200451
 21
280.50758992177065
  0
LINE
  8
_0-0_0
  6
CONTINUOUS
 62
    7
 10
-22.730229504200451
 20
280.50758992177065
 11
-22.765517273952269
 21
280.37820143268078
  0
LINE
  8
_0-0_0
  6
CONTINUOUS
 62
    7
 10
-22.765517273952269
 20
280.37820143268078
 11
-22.694941734448633
 21
280.2017625839216
  0
LINE
  8
_0-0_0
  6
CONTINUOUS
 62
    7
 10
-22.694941734448633
 20
280.2017625839216
 11
-22.342064036930423
 21
279.89593524607249
  0
LINE
  8
_0-0_0
  6
CONTINUOUS
 62
    7
 10
-22.342064036930423
 20
279.89593524607249
 11
-22.18915036800584
 21
279.82535970656886
  0
LINE
  8
_0-0_0
  6
CONTINUOUS
 62
    7
 10
-22.18915036800584
 20
279.82535970656886
 11
-21.895085620073984
 21
279.77830934689978
  0
LINE
  8
_0-0_0
  6
CONTINUOUS
 62
    7
 10
-21.895085620073984
 20
279.77830934689978
 11
-20.848215117436637
 21
279.94298560574156
  0
LINE
  8
_0-0_0
  6
CONTINUOUS
 62
    7
 10
-20.848215117436637
 20
279.94298560574156
 11
-20.354186340911098
 21
280.02532373516248
  0
LINE
  8
_0-0_0
  6
CONTINUOUS
 62
    7
 10
-20.354186340911098
 20
280.02532373516248
 11
-20.118934542565625
 21
280.06061150491439
  0
LINE
  8
_0-0_0
  6
CONTINUOUS
 62
    7
 10
-20.118934542565625
 20
280.06061150491439
 11
-19.754294255130162
 21
280.14294963433519
  0
LINE
  8
_0-0_0
  6
CONTINUOUS
 62
    7
 10
-19.754294255130162
 20
280.14294963433519
 11
-19.671956125709243
 21
280.11942445450068
  0
LINE
  8
_0-0_0
  6
CONTINUOUS
 62
    7
 10
-19.671956125709243
 20
280.11942445450068
 11
-19.601380586205607
 21
279.97827337549335
  0
LINE
  8
_0-0_0
  6
CONTINUOUS
 62
    7
 10
-19.601380586205607
 20
279.97827337549335
 11
-19.577855406371043
 21
279.83712229648608
  0
LINE
  8
_0-0_0
  6
CONTINUOUS
 62
    7
 10
-19.577855406371043
 20
279.83712229648608
 11
-19.613143176122861
 21
279.74302157714788
  0
LINE
  8
_0-0_0
  6
CONTINUOUS
 62
    7
 10
-19.613143176122861
 20
279.74302157714788
 11
-19.989546053475635
 21
279.6724460376443
  0
LINE
  8
_0-0_0
  6
CONTINUOUS
 62
    7
 10
-19.989546053475635
 20
279.6724460376443
 11
-20.824689937602073
 21
279.50776977880241
  0
LINE
  8
_0-0_0
  6
CONTINUOUS
 62
    7
 10
-20.824689937602073
 20
279.50776977880241
 11
-21.495157562886674
 21
279.42543164938149
  0
LINE
  8
_0-0_0
  6
CONTINUOUS
 62
    7
 10
-21.495157562886674
 20
279.42543164938149
 11
-21.695121591480358
 21
279.36661869979519
  0
LINE
  8
_0-0_0
  6
CONTINUOUS
 62
    7
 10
-21.695121591480358
 20
279.36661869979519
 11
-21.883323030156731
 21
279.36661869979519
  0
LINE
  8
_0-0_0
  6
CONTINUOUS
 62
    7
 10
-21.883323030156731
 20
279.36661869979519
 11
-22.342064036930423
 21
279.31956834012606
  0
LINE
  8
_0-0_0
  6
CONTINUOUS
 62
    7
 10
-22.342064036930423
 20
279.31956834012606
 11
-23.012531662215025
 21
279.41366905946426
  0
LINE
  8
_0-0_0
  6
CONTINUOUS
 62
    7
 10
-23.012531662215025
 20
279.41366905946426
 11
-23.236020870643244
 21
279.49600718888518
  0
LINE
  8
_0-0_0
  6
CONTINUOUS
 62
    7
 10
-23.236020870643244
 20
279.49600718888518
 11
-23.647711517747836
 21
279.82535970656886
  0
LINE
  8
_0-0_0
  6
CONTINUOUS
 62
    7
 10
-23.647711517747836
 20
279.82535970656886
 11
-23.871200726175999
 21
280.09589927466618
  0
LINE
  8
_0-0_0
  6
CONTINUOUS
 62
    7
 10
-23.871200726175999
 20
280.09589927466618
 11
-24.024114395100582
 21
281.08395682771708
  0
LINE
  8
_0-0_0
  6
CONTINUOUS
 62
    7
 10
-24.024114395100582
 20
281.08395682771708
 11
-23.894725906010563
 21
281.48388488490451
  0
LINE
  8
_0-0_0
  6
CONTINUOUS
 62
    7
 10
-23.894725906010563
 20
281.48388488490451
 11
-23.730049647168726
 21
281.78971222275356
  0
LINE
  8
_0-0_0
  6
CONTINUOUS
 62
    7
 10
-23.730049647168726
 20
281.78971222275356
 11
-23.294833820229598
 21
282.13082733035457
  0
LINE
  8
_0-0_0
  6
CONTINUOUS
 62
    7
 10
-23.294833820229598
 20
282.13082733035457
 11
-22.671416554614097
 21
282.42489207828629
  0
LINE
  8
_0-0_0
  6
CONTINUOUS
 62
    7
 10
-22.671416554614097
 20
282.42489207828629
 11
-21.612783462059411
 21
282.60133092704546
  0
LINE
  8
_0-0_0
  6
CONTINUOUS
 62
    7
 10
-21.612783462059411
 20
282.60133092704546
 11
-21.201092814954819
 21
282.68366905646649
  0
LINE
  8
_0-0_0
  6
CONTINUOUS
 62
    7
 10
-21.201092814954819
 20
282.68366905646649
 11
-20.307135981242026
 21
282.84834531530827
  0
LINE
  8
_0-0_0
  6
CONTINUOUS
 62
    7
 10
-20.307135981242026
 20
282.84834531530827
 11
-20.283610801407462
 21
282.8601079052255
  0
LINE
  8
_0-0_0
  6
CONTINUOUS
 62
    7
 10
-20.283610801407462
 20
282.8601079052255
 11
-20.165984902234754
 21
282.83658272539099
  0
LINE
  8
_0-0_0
  6
CONTINUOUS
 62
    7
 10
-20.165984902234754
 20
282.83658272539099
 11
-20.083646772813835
 21
282.6719064665491
  0
LINE
  8
_0-0_0
  6
CONTINUOUS
 62
    7
 10
-18.142819436463639
 20
283.35413668175095
 11
-18.131056846546357
 21
280.35467625284616
  0
LINE
  8
_0-0_0
  6
CONTINUOUS
 62
    7
 10
-18.131056846546357
 20
280.35467625284616
 11
-18.119294256629075
 21
279.82535970656886
  0
LINE
  8
_0-0_0
  6
CONTINUOUS
 62
    7
 10
-18.119294256629075
 20
279.82535970656886
 11
-18.084006486877257
 21
279.42543164938149
  0
LINE
  8
_0-0_0
  6
CONTINUOUS
 62
    7
 10
-18.084006486877257
 20
279.42543164938149
 11
-17.954617997787238
 21
279.31956834012606
  0
LINE
  8
_0-0_0
  6
CONTINUOUS
 62
    7
 10
-17.954617997787238
 20
279.31956834012606
 11
-17.048898574157135
 21
279.31956834012606
  0
LINE
  8
_0-0_0
  6
CONTINUOUS
 62
    7
 10
-17.048898574157135
 20
279.31956834012606
 11
-16.413718718624352
 21
279.27251798045699
  0
LINE
  8
_0-0_0
  6
CONTINUOUS
 62
    7
 10
-16.413718718624352
 20
279.27251798045699
 11
-16.225517279947979
 21
279.27251798045699
  0
LINE
  8
_0-0_0
  6
CONTINUOUS
 62
    7
 10
-16.225517279947979
 20
279.27251798045699
 11
-16.084366200940678
 21
279.31956834012606
  0
LINE
  8
_0-0_0
  6
CONTINUOUS
 62
    7
 10
-16.084366200940678
 20
279.31956834012606
 11
-16.002028071519788
 21
279.43719423929877
  0
LINE
  8
_0-0_0
  6
CONTINUOUS
 62
    7
 10
-16.002028071519788
 20
279.43719423929877
 11
-15.954977711850659
 21
280.09589927466618
  0
LINE
  8
_0-0_0
  6
CONTINUOUS
 62
    7
 10
-15.954977711850659
 20
280.09589927466618
 11
-15.96674030176797
 21
280.68402877052977
  0
LINE
  8
_0-0_0
  6
CONTINUOUS
 62
    7
 10
-15.96674030176797
 20
280.68402877052977
 11
-15.990265481602506
 21
281.26039567647626
  0
LINE
  8
_0-0_0
  6
CONTINUOUS
 62
    7
 10
-15.990265481602506
 20
281.26039567647626
 11
-15.990265481602506
 21
281.44859711515266
  0
LINE
  8
_0-0_0
  6
CONTINUOUS
 62
    7
 10
-15.990265481602506
 20
281.44859711515266
 11
-15.96674030176797
 21
282.36607912869999
  0
LINE
  8
_0-0_0
  6
CONTINUOUS
 62
    7
 10
-15.96674030176797
 20
282.36607912869999
 11
-15.96674030176797
 21
283.3894244515028
  0
LINE
  8
_0-0_0
  6
CONTINUOUS
 62
    7
 10
-15.96674030176797
 20
283.3894244515028
 11
-15.943215121933405
 21
283.43647481117187
  0
LINE
  8
_0-0_0
  6
CONTINUOUS
 62
    7
 10
-15.943215121933405
 20
283.43647481117187
 11
-14.637567641115992
 21
283.43647481117187
  0
LINE
  8
_0-0_0
  6
CONTINUOUS
 62
    7
 10
-14.637567641115992
 20
283.43647481117187
 11
-14.578754691529638
 21
283.35413668175095
  0
LINE
  8
_0-0_0
  6
CONTINUOUS
 62
    7
 10
-14.578754691529638
 20
283.35413668175095
 11
-14.555229511695074
 21
280.02532373516248
  0
LINE
  8
_0-0_0
  6
CONTINUOUS
 62
    7
 10
-14.555229511695074
 20
280.02532373516248
 11
-14.555229511695074
 21
278.71967625434518
  0
LINE
  8
_0-0_0
  6
CONTINUOUS
 62
    7
 10
-14.555229511695074
 20
278.71967625434518
 11
-14.543466921777792
 21
276.12014388262747
  0
LINE
  8
_0-0_0
  6
CONTINUOUS
 62
    7
 10
-14.543466921777792
 20
276.12014388262747
 11
-14.543466921777792
 21
274.1440287765256
  0
LINE
  8
_0-0_0
  6
CONTINUOUS
 62
    7
 10
-14.543466921777792
 20
274.1440287765256
 11
-14.578754691529638
 21
274.01464028743561
  0
LINE
  8
_0-0_0
  6
CONTINUOUS
 62
    7
 10
-14.578754691529638
 20
274.01464028743561
 11
-14.578754691529638
 21
274.00287769751815
  0
LINE
  8
_0-0_0
  6
CONTINUOUS
 62
    7
 10
-14.578754691529638
 20
274.00287769751815
 11
-14.884582029378748
 21
273.95582733784908
  0
LINE
  8
_0-0_0
  6
CONTINUOUS
 62
    7
 10
-14.884582029378748
 20
273.95582733784908
 11
-15.849114402595205
 21
273.9793525176837
  0
LINE
  8
_0-0_0
  6
CONTINUOUS
 62
    7
 10
-15.849114402595205
 20
273.9793525176837
 11
-15.907927352181587
 21
274.08521582693907
  0
LINE
  8
_0-0_0
  6
CONTINUOUS
 62
    7
 10
-15.907927352181587
 20
274.08521582693907
 11
-15.931452532016123
 21
274.6733453228029
  0
LINE
  8
_0-0_0
  6
CONTINUOUS
 62
    7
 10
-15.931452532016123
 20
274.6733453228029
 11
-15.96674030176797
 21
276.84942445749857
  0
LINE
  8
_0-0_0
  6
CONTINUOUS
 62
    7
 10
-15.96674030176797
 20
276.84942445749857
 11
-15.96674030176797
 21
277.14348920543039
  0
LINE
  8
_0-0_0
  6
CONTINUOUS
 62
    7
 10
-15.96674030176797
 20
277.14348920543039
 11
-15.990265481602506
 21
277.64928057187319
  0
LINE
  8
_0-0_0
  6
CONTINUOUS
 62
    7
 10
-15.990265481602506
 20
277.64928057187319
 11
-16.04907843118886
 21
277.76690647104589
  0
LINE
  8
_0-0_0
  6
CONTINUOUS
 62
    7
 10
-16.04907843118886
 20
277.76690647104589
 11
-16.166704330361596
 21
277.83748201054959
  0
LINE
  8
_0-0_0
  6
CONTINUOUS
 62
    7
 10
-16.166704330361596
 20
277.83748201054959
 11
-17.96638058770452
 21
277.82571942063231
  0
LINE
  8
_0-0_0
  6
CONTINUOUS
 62
    7
 10
-17.96638058770452
 20
277.82571942063231
 11
-18.072243896959975
 21
277.68456834162498
  0
LINE
  8
_0-0_0
  6
CONTINUOUS
 62
    7
 10
-18.072243896959975
 20
277.68456834162498
 11
-18.119294256629075
 21
277.37874100377587
  0
LINE
  8
_0-0_0
  6
CONTINUOUS
 62
    7
 10
-18.119294256629075
 20
277.37874100377587
 11
-18.107531666711793
 21
276.72003596840846
  0
LINE
  8
_0-0_0
  6
CONTINUOUS
 62
    7
 10
-18.107531666711793
 20
276.72003596840846
 11
-18.119294256629075
 21
275.83784172461298
  0
LINE
  8
_0-0_0
  6
CONTINUOUS
 62
    7
 10
-18.119294256629075
 20
275.83784172461298
 11
-18.119294256629075
 21
274.08521582693907
  0
LINE
  8
_0-0_0
  6
CONTINUOUS
 62
    7
 10
-18.119294256629075
 20
274.08521582693907
 11
-18.166344616298147
 21
274.00287769751815
  0
LINE
  8
_0-0_0
  6
CONTINUOUS
 62
    7
 10
-18.166344616298147
 20
274.00287769751815
 11
-18.636848212989121
 21
273.96758992776636
  0
LINE
  8
_0-0_0
  6
CONTINUOUS
 62
    7
 10
-18.636848212989121
 20
273.96758992776636
 11
-18.966200730672795
 21
273.9793525176837
  0
LINE
  8
_0-0_0
  6
CONTINUOUS
 62
    7
 10
-18.966200730672795
 20
273.9793525176837
 11
-19.048538860093714
 21
274.0734532370219
  0
LINE
  8
_0-0_0
  6
CONTINUOUS
 62
    7
 10
-19.048538860093714
 20
274.0734532370219
 11
-19.060301450010967
 21
276.08485611287579
  0
LINE
  8
_0-0_0
  6
CONTINUOUS
 62
    7
 10
-19.060301450010967
 20
276.08485611287579
 11
-19.072064039928278
 21
278.21388488790228
  0
LINE
  8
_0-0_0
  6
CONTINUOUS
 62
    7
 10
-19.072064039928278
 20
278.21388488790228
 11
-19.072064039928278
 21
283.37766186158557
  0
LINE
  8
_0-0_0
  6
CONTINUOUS
 62
    7
 10
-19.072064039928278
 20
283.37766186158557
 11
-19.060301450010967
 21
283.43647481117187
  0
LINE
  8
_0-0_0
  6
CONTINUOUS
 62
    7
 10
-19.060301450010967
 20
283.43647481117187
 11
-18.98972591050736
 21
283.47176258092366
  0
LINE
  8
_0-0_0
  6
CONTINUOUS
 62
    7
 10
-18.98972591050736
 20
283.47176258092366
 11
-18.201632386049993
 21
283.43647481117187
  0
LINE
  8
_0-0_0
  6
CONTINUOUS
 62
    7
 10
-18.201632386049993
 20
283.43647481117187
 11
-18.142819436463639
 21
283.35413668175095
  0
LINE
  8
_0-0_0
  6
CONTINUOUS
 62
    7
 10
-11.838071240804822
 20
282.54251797745911
 11
-11.873359010556612
 21
282.27197840936179
  0
LINE
  8
_0-0_0
  6
CONTINUOUS
 62
    7
 10
-11.873359010556612
 20
282.27197840936179
 11
-11.967459729894812
 21
282.02496402109909
  0
LINE
  8
_0-0_0
  6
CONTINUOUS
 62
    7
 10
-11.967459729894812
 20
282.02496402109909
 11
-12.061560449233013
 21
281.49564747482168
  0
LINE
  8
_0-0_0
  6
CONTINUOUS
 62
    7
 10
-12.061560449233013
 20
281.49564747482168
 11
-12.085085629067549
 21
281.41330934540076
  0
LINE
  8
_0-0_0
  6
CONTINUOUS
 62
    7
 10
-12.085085629067549
 20
281.41330934540076
 11
-12.17918634840575
 21
280.88399279912346
  0
LINE
  8
_0-0_0
  6
CONTINUOUS
 62
    7
 10
-12.17918634840575
 20
280.88399279912346
 11
-12.249761887909386
 21
280.54287769152256
  0
LINE
  8
_0-0_0
  6
CONTINUOUS
 62
    7
 10
-12.249761887909386
 20
280.54287769152256
 11
-12.296812247578486
 21
280.37820143268078
  0
LINE
  8
_0-0_0
  6
CONTINUOUS
 62
    7
 10
-12.296812247578486
 20
280.37820143268078
 11
-12.402675556833969
 21
279.64892085780979
  0
LINE
  8
_0-0_0
  6
CONTINUOUS
 62
    7
 10
-12.402675556833969
 20
279.64892085780979
 11
-12.437963326585759
 21
279.56658272838876
  0
LINE
  8
_0-0_0
  6
CONTINUOUS
 62
    7
 10
-12.437963326585759
 20
279.56658272838876
 11
-12.485013686254887
 21
279.54305754855425
  0
LINE
  8
_0-0_0
  6
CONTINUOUS
 62
    7
 10
-12.485013686254887
 20
279.54305754855425
 11
-13.249582030877689
 21
279.64892085780979
  0
LINE
  8
_0-0_0
  6
CONTINUOUS
 62
    7
 10
-13.249582030877689
 20
279.64892085780979
 11
-13.414258289719498
 21
279.70773380739609
  0
LINE
  8
_0-0_0
  6
CONTINUOUS
 62
    7
 10
-13.414258289719498
 20
279.70773380739609
 11
-13.461308649388598
 21
279.74302157714788
  0
LINE
  8
_0-0_0
  6
CONTINUOUS
 62
    7
 10
-13.461308649388598
 20
279.74302157714788
 11
-13.284869800629479
 21
280.67226618061249
  0
LINE
  8
_0-0_0
  6
CONTINUOUS
 62
    7
 10
-13.284869800629479
 20
280.67226618061249
 11
-13.179006491374053
 21
281.21334531680719
  0
LINE
  8
_0-0_0
  6
CONTINUOUS
 62
    7
 10
-13.179006491374053
 20
281.21334531680719
 11
-12.873179153524915
 21
282.76600718588736
  0
LINE
  8
_0-0_0
  6
CONTINUOUS
 62
    7
 10
-12.873179153524915
 20
282.76600718588736
 11
-12.755553254352179
 21
282.8012949556392
  0
LINE
  8
_0-0_0
  6
CONTINUOUS
 62
    7
 10
-12.755553254352179
 20
282.8012949556392
 11
-11.873359010556612
 21
282.62485610687997
  0
LINE
  8
_0-0_0
  6
CONTINUOUS
 62
    7
 10
-11.873359010556612
 20
282.62485610687997
 11
-11.838071240804822
 21
282.54251797745911
  0
LINE
  8
_0-0_0
  6
CONTINUOUS
 62
    7
 10
-10.073682753213688
 20
282.17787769002359
 11
-9.8854813145373441
 21
282.11906474043729
  0
LINE
  8
_0-0_0
  6
CONTINUOUS
 62
    7
 10
-9.8854813145373441
 20
282.11906474043729
 11
-9.6384669262745603
 21
282.01320143118181
  0
LINE
  8
_0-0_0
  6
CONTINUOUS
 62
    7
 10
-9.6384669262745603
 20
282.01320143118181
 11
-9.4973158472673162
 21
281.94262589167817
  0
LINE
  8
_0-0_0
  6
CONTINUOUS
 62
    7
 10
-9.4973158472673162
 20
281.94262589167817
 11
-9.2267762791699965
 21
281.84852517233986
  0
LINE
  8
_0-0_0
  6
CONTINUOUS
 62
    7
 10
-9.2267762791699965
 20
281.84852517233986
 11
-7.1212726839779634
 21
281.03690646804807
  0
LINE
  8
_0-0_0
  6
CONTINUOUS
 62
    7
 10
-7.1212726839779634
 20
281.03690646804807
 11
-6.5801935477833524
 21
280.62521582094348
  0
LINE
  8
_0-0_0
  6
CONTINUOUS
 62
    7
 10
-6.5801935477833524
 20
280.62521582094348
 11
-6.3802295191896973
 21
280.37820143268078
  0
LINE
  8
_0-0_0
  6
CONTINUOUS
 62
    7
 10
-6.3802295191896973
 20
280.37820143268078
 11
-6.2390784401824248
 21
280.02532373516248
  0
LINE
  8
_0-0_0
  6
CONTINUOUS
 62
    7
 10
-6.2390784401824248
 20
280.02532373516248
 11
-6.250841030099707
 21
279.77830934689978
  0
LINE
  8
_0-0_0
  6
CONTINUOUS
 62
    7
 10
-6.250841030099707
 20
279.77830934689978
 11
-6.3802295191896973
 21
279.49600718888518
  0
LINE
  8
_0-0_0
  6
CONTINUOUS
 62
    7
 10
-6.3802295191896973
 20
279.49600718888518
 11
-6.6037187276178883
 21
279.33133093004329
  0
LINE
  8
_0-0_0
  6
CONTINUOUS
 62
    7
 10
-6.6037187276178883
 20
279.33133093004329
 11
-6.7919201662942896
 21
279.2372302107052
  0
LINE
  8
_0-0_0
  6
CONTINUOUS
 62
    7
 10
-6.7919201662942896
 20
279.2372302107052
 11
-7.0506971444743271
 21
279.15489208128417
  0
LINE
  8
_0-0_0
  6
CONTINUOUS
 62
    7
 10
-7.0506971444743271
 20
279.15489208128417
 11
-7.662351820172546
 21
279.143129491367
  0
LINE
  8
_0-0_0
  6
CONTINUOUS
 62
    7
 10
-7.662351820172546
 20
279.143129491367
 11
-7.756452539510775
 21
279.03726618211146
  0
LINE
  8
_0-0_0
  6
CONTINUOUS
 62
    7
 10
-7.756452539510775
 20
279.03726618211146
 11
-7.7211647697589569
 21
278.8020143837661
  0
LINE
  8
_0-0_0
  6
CONTINUOUS
 62
    7
 10
-7.7211647697589569
 20
278.8020143837661
 11
-7.3682870722407187
 21
278.00215826939137
  0
LINE
  8
_0-0_0
  6
CONTINUOUS
 62
    7
 10
-7.3682870722407187
 20
278.00215826939137
 11
-7.2506611730679537
 21
277.67280575170781
  0
LINE
  8
_0-0_0
  6
CONTINUOUS
 62
    7
 10
-7.2506611730679537
 20
277.67280575170781
 11
-7.2506611730679537
 21
277.60223021220406
  0
LINE
  8
_0-0_0
  6
CONTINUOUS
 62
    7
 10
-7.2506611730679537
 20
277.60223021220406
 11
-7.3565244823234365
 21
277.6139928021214
  0
LINE
  8
_0-0_0
  6
CONTINUOUS
 62
    7
 10
-7.3565244823234365
 20
277.6139928021214
 11
-7.779977719345311
 21
277.80219424079768
  0
LINE
  8
_0-0_0
  6
CONTINUOUS
 62
    7
 10
-7.779977719345311
 20
277.80219424079768
 11
-8.285769085788047
 21
278.06097121897778
  0
LINE
  8
_0-0_0
  6
CONTINUOUS
 62
    7
 10
-8.285769085788047
 20
278.06097121897778
 11
-8.4269201647953764
 21
278.31974819715776
  0
LINE
  8
_0-0_0
  6
CONTINUOUS
 62
    7
 10
-8.4269201647953764
 20
278.31974819715776
 11
-8.8738985816517583
 21
279.53129495863697
  0
LINE
  8
_0-0_0
  6
CONTINUOUS
 62
    7
 10
-8.8738985816517583
 20
279.53129495863697
 11
-9.026812250576313
 21
279.68420862756158
  0
LINE
  8
_0-0_0
  6
CONTINUOUS
 62
    7
 10
-9.026812250576313
 20
279.68420862756158
 11
-9.5796539766881778
 21
279.88417265615515
  0
LINE
  8
_0-0_0
  6
CONTINUOUS
 62
    7
 10
-9.5796539766881778
 20
279.88417265615515
 11
-9.8501935447854975
 21
280.01356114524526
  0
LINE
  8
_0-0_0
  6
CONTINUOUS
 62
    7
 10
-9.8501935447854975
 20
280.01356114524526
 11
-10.167783472551917
 21
280.09589927466618
  0
LINE
  8
_0-0_0
  6
CONTINUOUS
 62
    7
 10
-10.167783472551917
 20
280.09589927466618
 11
-10.297171961641936
 21
280.06061150491439
  0
LINE
  8
_0-0_0
  6
CONTINUOUS
 62
    7
 10
-10.297171961641936
 20
280.06061150491439
 11
-10.48537340031828
 21
279.6724460376443
  0
LINE
  8
_0-0_0
  6
CONTINUOUS
 62
    7
 10
-10.48537340031828
 20
279.6724460376443
 11
-10.708862608746528
 21
279.143129491367
  0
LINE
  8
_0-0_0
  6
CONTINUOUS
 62
    7
 10
-10.708862608746528
 20
279.143129491367
 11
-10.791200738167418
 21
279.06079136194597
  0
LINE
  8
_0-0_0
  6
CONTINUOUS
 62
    7
 10
-10.791200738167418
 20
279.06079136194597
 11
-10.908826637340155
 21
279.06079136194597
  0
LINE
  8
_0-0_0
  6
CONTINUOUS
 62
    7
 10
-10.908826637340155
 20
279.06079136194597
 11
-11.544006492872938
 21
279.27251798045699
  0
LINE
  8
_0-0_0
  6
CONTINUOUS
 62
    7
 10
-11.544006492872938
 20
279.27251798045699
 11
-11.638107212211139
 21
279.36661869979519
  0
LINE
  8
_0-0_0
  6
CONTINUOUS
 62
    7
 10
-11.638107212211139
 20
279.36661869979519
 11
-11.60281944245932
 21
279.49600718888518
  0
LINE
  8
_0-0_0
  6
CONTINUOUS
 62
    7
 10
-11.60281944245932
 20
279.49600718888518
 11
-11.367567644113847
 21
280.09589927466618
  0
LINE
  8
_0-0_0
  6
CONTINUOUS
 62
    7
 10
-11.367567644113847
 20
280.09589927466618
 11
-11.120553255851092
 21
280.70755395036439
  0
LINE
  8
_0-0_0
  6
CONTINUOUS
 62
    7
 10
-11.120553255851092
 20
280.70755395036439
 11
-10.885301457505619
 21
281.26039567647626
  0
LINE
  8
_0-0_0
  6
CONTINUOUS
 62
    7
 10
-10.885301457505619
 20
281.26039567647626
 11
-10.697100018829246
 21
281.78971222275356
  0
LINE
  8
_0-0_0
  6
CONTINUOUS
 62
    7
 10
-10.697100018829246
 20
281.78971222275356
 11
-10.497135990235562
 21
282.24845322952728
  0
LINE
  8
_0-0_0
  6
CONTINUOUS
 62
    7
 10
-10.497135990235562
 20
282.24845322952728
 11
-10.461848220483773
 21
282.30726617911369
  0
LINE
  8
_0-0_0
  6
CONTINUOUS
 62
    7
 10
-10.461848220483773
 20
282.30726617911369
 11
-10.285409371724654
 21
282.27197840936179
  0
LINE
  8
_0-0_0
  6
CONTINUOUS
 62
    7
 10
-10.285409371724654
 20
282.27197840936179
 11
-10.073682753213688
 21
282.17787769002359
  0
LINE
  8
_0-0_0
  6
CONTINUOUS
 62
    7
 10
-8.9091863514036049
 20
281.23687049664169
 11
-7.95641656810443
 21
280.84870502937167
  0
LINE
  8
_0-0_0
  6
CONTINUOUS
 62
    7
 10
-7.95641656810443
 20
280.84870502937167
 11
-7.7682151294280288
 21
280.73107913019896
  0
LINE
  8
_0-0_0
  6
CONTINUOUS
 62
    7
 10
-7.7682151294280288
 20
280.73107913019896
 11
-7.5564885109170916
 21
280.50758992177065
  0
LINE
  8
_0-0_0
  6
CONTINUOUS
 62
    7
 10
-7.5564885109170916
 20
280.50758992177065
 11
-7.5212007411652734
 21
280.37820143268078
  0
LINE
  8
_0-0_0
  6
CONTINUOUS
 62
    7
 10
-7.5212007411652734
 20
280.37820143268078
 11
-7.5329633310825556
 21
280.11942445450068
  0
LINE
  8
_0-0_0
  6
CONTINUOUS
 62
    7
 10
-7.5329633310825556
 20
280.11942445450068
 11
-7.6153014605034741
 21
279.96651078557619
  0
LINE
  8
_0-0_0
  6
CONTINUOUS
 62
    7
 10
-7.6153014605034741
 20
279.96651078557619
 11
-7.7682151294280288
 21
279.84888488640336
  0
LINE
  8
_0-0_0
  6
CONTINUOUS
 62
    7
 10
-7.7682151294280288
 20
279.84888488640336
 11
-8.0740424672771382
 21
279.82535970656886
  0
LINE
  8
_0-0_0
  6
CONTINUOUS
 62
    7
 10
-8.0740424672771382
 20
279.82535970656886
 11
-8.4739705244644767
 21
279.919460425907
  0
LINE
  8
_0-0_0
  6
CONTINUOUS
 62
    7
 10
-8.4739705244644767
 20
279.919460425907
 11
-9.5796539766881778
 21
280.35467625284616
  0
LINE
  8
_0-0_0
  6
CONTINUOUS
 62
    7
 10
-9.5796539766881778
 20
280.35467625284616
 11
-9.9442942641236982
 21
280.49582733185337
  0
LINE
  8
_0-0_0
  6
CONTINUOUS
 62
    7
 10
-9.9442942641236982
 20
280.49582733185337
 11
-10.026632393544616
 21
280.61345323102619
  0
LINE
  8
_0-0_0
  6
CONTINUOUS
 62
    7
 10
-10.026632393544616
 20
280.61345323102619
 11
-9.9913446237927701
 21
280.8251798495371
  0
LINE
  8
_0-0_0
  6
CONTINUOUS
 62
    7
 10
-9.9913446237927701
 20
280.8251798495371
 11
-9.7678554153645791
 21
281.3662589857318
  0
LINE
  8
_0-0_0
  6
CONTINUOUS
 62
    7
 10
-9.7678554153645791
 20
281.3662589857318
 11
-9.6737546960264069
 21
281.44859711515266
  0
LINE
  8
_0-0_0
  6
CONTINUOUS
 62
    7
 10
-9.6737546960264069
 20
281.44859711515266
 11
-9.6384669262745603
 21
281.47212229498728
  0
LINE
  8
_0-0_0
  6
CONTINUOUS
 62
    7
 10
-9.6384669262745603
 20
281.47212229498728
 11
-9.4267403077636231
 21
281.44859711515266
  0
LINE
  8
_0-0_0
  6
CONTINUOUS
 62
    7
 10
-9.4267403077636231
 20
281.44859711515266
 11
-8.9091863514036049
 21
281.23687049664169
  0
LINE
  8
_0-0_0
  6
CONTINUOUS
 62
    7
 10
-3.8983230466449185
 20
279.43719423929877
 11
-3.0514165726011981
 21
278.9549280526906
  0
LINE
  8
_0-0_0
  6
CONTINUOUS
 62
    7
 10
-3.0514165726011981
 20
278.9549280526906
 11
-2.9102654935938971
 21
278.83730215351778
  0
LINE
  8
_0-0_0
  6
CONTINUOUS
 62
    7
 10
-2.9102654935938971
 20
278.83730215351778
 11
-2.3809489473165967
 21
278.39032373666151
  0
LINE
  8
_0-0_0
  6
CONTINUOUS
 62
    7
 10
-2.3809489473165967
 20
278.39032373666151
 11
-1.8398698111219573
 21
277.76690647104589
  0
LINE
  8
_0-0_0
  6
CONTINUOUS
 62
    7
 10
-1.8398698111219573
 20
277.76690647104589
 11
-1.6399057825283307
 21
277.425791363445
  0
LINE
  8
_0-0_0
  6
CONTINUOUS
 62
    7
 10
-1.6399057825283307
 20
277.425791363445
 11
-1.4987547035210297
 21
277.03762589617485
  0
LINE
  8
_0-0_0
  6
CONTINUOUS
 62
    7
 10
-1.4987547035210297
 20
277.03762589617485
 11
-1.4634669337692116
 21
276.88471222725036
  0
LINE
  8
_0-0_0
  6
CONTINUOUS
 62
    7
 10
-1.4634669337692116
 20
276.88471222725036
 11
-1.4752295236864938
 21
276.35539568097306
  0
LINE
  8
_0-0_0
  6
CONTINUOUS
 62
    7
 10
-1.4752295236864938
 20
276.35539568097306
 11
-1.6516683724456129
 21
275.95546762378569
  0
LINE
  8
_0-0_0
  6
CONTINUOUS
 62
    7
 10
-1.6516683724456129
 20
275.95546762378569
 11
-1.8751575808738039
 21
275.66140287585386
  0
LINE
  8
_0-0_0
  6
CONTINUOUS
 62
    7
 10
-1.8751575808738039
 20
275.66140287585386
 11
-2.2280352783919852
 21
275.36733812792209
  0
LINE
  8
_0-0_0
  6
CONTINUOUS
 62
    7
 10
-2.2280352783919852
 20
275.36733812792209
 11
-2.5456252061583768
 21
275.24971222874927
  0
LINE
  8
_0-0_0
  6
CONTINUOUS
 62
    7
 10
-2.5456252061583768
 20
275.24971222874927
 11
-2.898502903676615
 21
275.19089927916286
  0
LINE
  8
_0-0_0
  6
CONTINUOUS
 62
    7
 10
-2.898502903676615
 20
275.19089927916286
 11
-3.4278194499539722
 21
275.2967625884184
  0
LINE
  8
_0-0_0
  6
CONTINUOUS
 62
    7
 10
-3.4278194499539722
 20
275.2967625884184
 11
-3.7689345575548998
 21
275.41438848759111
  0
LINE
  8
_0-0_0
  6
CONTINUOUS
 62
    7
 10
-3.7689345575548998
 20
275.41438848759111
 11
-4.4982151324258552
 21
275.80255395486119
  0
LINE
  8
_0-0_0
  6
CONTINUOUS
 62
    7
 10
-4.4982151324258552
 20
275.80255395486119
 11
-5.2039705274623315
 21
276.36715827089028
  0
LINE
  8
_0-0_0
  6
CONTINUOUS
 62
    7
 10
-5.2039705274623315
 20
276.36715827089028
 11
-5.7685748434914785
 21
276.94352517683665
  0
LINE
  8
_0-0_0
  6
CONTINUOUS
 62
    7
 10
-5.7685748434914785
 20
276.94352517683665
 11
-5.9450136922505691
 21
277.2023021550168
  0
LINE
  8
_0-0_0
  6
CONTINUOUS
 62
    7
 10
-5.9450136922505691
 20
277.2023021550168
 11
-6.2390784401824248
 21
277.83748201054959
  0
LINE
  8
_0-0_0
  6
CONTINUOUS
 62
    7
 10
-6.2390784401824248
 20
277.83748201054959
 11
-6.2861287998514967
 21
278.072733808895
  0
LINE
  8
_0-0_0
  6
CONTINUOUS
 62
    7
 10
-6.2861287998514967
 20
278.072733808895
 11
-6.2273158502651426
 21
278.53147481566878
  0
LINE
  8
_0-0_0
  6
CONTINUOUS
 62
    7
 10
-6.2273158502651426
 20
278.53147481566878
 11
-6.0508770015060235
 21
278.88435251318696
  0
LINE
  8
_0-0_0
  6
CONTINUOUS
 62
    7
 10
-6.0508770015060235
 20
278.88435251318696
 11
-5.8156252031605504
 21
279.2019424409533
  0
LINE
  8
_0-0_0
  6
CONTINUOUS
 62
    7
 10
-5.8156252031605504
 20
279.2019424409533
 11
-5.5333230451460053
 21
279.3901438796297
  0
LINE
  8
_0-0_0
  6
CONTINUOUS
 62
    7
 10
-5.5333230451460053
 20
279.3901438796297
 11
-5.2039705274623315
 21
279.56658272838876
  0
LINE
  8
_0-0_0
  6
CONTINUOUS
 62
    7
 10
-5.2039705274623315
 20
279.56658272838876
 11
-4.9334309593650118
 21
279.62539567797517
  0
LINE
  8
_0-0_0
  6
CONTINUOUS
 62
    7
 10
-4.9334309593650118
 20
279.62539567797517
 11
-4.4746899525913192
 21
279.60187049814066
  0
LINE
  8
_0-0_0
  6
CONTINUOUS
 62
    7
 10
-4.4746899525913192
 20
279.60187049814066
 11
-3.8983230466449185
 21
279.43719423929877
  0
LINE
  8
_0-0_0
  6
CONTINUOUS
 62
    7
 10
-3.3572439104503359
 20
278.60205035517236
 11
-2.675013695248424
 21
278.02568344922599
  0
LINE
  8
_0-0_0
  6
CONTINUOUS
 62
    7
 10
-2.675013695248424
 20
278.02568344922599
 11
-2.3691863573993146
 21
277.53165467270048
  0
LINE
  8
_0-0_0
  6
CONTINUOUS
 62
    7
 10
-2.3691863573993146
 20
277.53165467270048
 11
-2.2986108178956499
 21
277.1787769751823
  0
LINE
  8
_0-0_0
  6
CONTINUOUS
 62
    7
 10
-2.2986108178956499
 20
277.1787769751823
 11
-2.4044741271511043
 21
276.77884891799487
  0
LINE
  8
_0-0_0
  6
CONTINUOUS
 62
    7
 10
-2.4044741271511043
 20
276.77884891799487
 11
-2.4985748464893049
 21
276.62593524907026
  0
LINE
  8
_0-0_0
  6
CONTINUOUS
 62
    7
 10
-2.4985748464893049
 20
276.62593524907026
 11
-3.0043662129320978
 21
276.13190647254486
  0
LINE
  8
_0-0_0
  6
CONTINUOUS
 62
    7
 10
-3.0043662129320978
 20
276.13190647254486
 11
-3.1455172919393703
 21
276.02604316328938
  0
LINE
  8
_0-0_0
  6
CONTINUOUS
 62
    7
 10
-3.1455172919393703
 20
276.02604316328938
 11
-3.49839498945758
 21
275.96723021370297
  0
LINE
  8
_0-0_0
  6
CONTINUOUS
 62
    7
 10
-3.49839498945758
 20
275.96723021370297
 11
-4.0629993054867554
 21
276.12014388262747
  0
LINE
  8
_0-0_0
  6
CONTINUOUS
 62
    7
 10
-4.0629993054867554
 20
276.12014388262747
 11
-4.4746899525913192
 21
276.33187050113849
  0
LINE
  8
_0-0_0
  6
CONTINUOUS
 62
    7
 10
-4.4746899525913192
 20
276.33187050113849
 11
-4.7334669307713284
 21
276.5435971196494
  0
LINE
  8
_0-0_0
  6
CONTINUOUS
 62
    7
 10
-4.7334669307713284
 20
276.5435971196494
 11
-5.0628194484550022
 21
276.90823740708486
  0
LINE
  8
_0-0_0
  6
CONTINUOUS
 62
    7
 10
-5.0628194484550022
 20
276.90823740708486
 11
-5.28630865688325
 21
277.29640287435501
  0
LINE
  8
_0-0_0
  6
CONTINUOUS
 62
    7
 10
-5.28630865688325
 20
277.29640287435501
 11
-5.3804093762213938
 21
277.59046762228678
  0
LINE
  8
_0-0_0
  6
CONTINUOUS
 62
    7
 10
-5.3804093762213938
 20
277.59046762228678
 11
-5.3451216064696041
 21
277.84924460046676
  0
LINE
  8
_0-0_0
  6
CONTINUOUS
 62
    7
 10
-5.3451216064696041
 20
277.84924460046676
 11
-5.2510208871314034
 21
278.08449639881229
  0
LINE
  8
_0-0_0
  6
CONTINUOUS
 62
    7
 10
-5.2510208871314034
 20
278.08449639881229
 11
-5.0040064988686765
 21
278.4256115064133
  0
LINE
  8
_0-0_0
  6
CONTINUOUS
 62
    7
 10
-5.0040064988686765
 20
278.4256115064133
 11
-4.604078441681338
 21
278.7667266140142
  0
LINE
  8
_0-0_0
  6
CONTINUOUS
 62
    7
 10
-4.604078441681338
 20
278.7667266140142
 11
-4.3688266433358649
 21
278.84906474343506
  0
LINE
  8
_0-0_0
  6
CONTINUOUS
 62
    7
 10
-4.3688266433358649
 20
278.84906474343506
 11
-4.1218122550731095
 21
278.88435251318696
  0
LINE
  8
_0-0_0
  6
CONTINUOUS
 62
    7
 10
-4.1218122550731095
 20
278.88435251318696
 11
-3.6042582987130344
 21
278.73143884426241
  0
LINE
  8
_0-0_0
  6
CONTINUOUS
 62
    7
 10
-3.6042582987130344
 20
278.73143884426241
 11
-3.3572439104503359
 21
278.60205035517236
  0
LINE
  8
_0-0_0
  6
CONTINUOUS
 62
    7
 10
-19.519042456784688
 20
279.13136690144966
 11
-19.542567636619224
 21
278.9549280526906
  0
LINE
  8
_0-0_0
  6
CONTINUOUS
 62
    7
 10
-19.542567636619224
 20
278.9549280526906
 11
-19.530805046701942
 21
278.56676258542046
  0
LINE
  8
_0-0_0
  6
CONTINUOUS
 62
    7
 10
-19.530805046701942
 20
278.56676258542046
 11
-19.542567636619224
 21
278.02568344922599
  0
LINE
  8
_0-0_0
  6
CONTINUOUS
 62
    7
 10
-19.542567636619224
 20
278.02568344922599
 11
-19.542567636619224
 21
277.83748201054959
  0
LINE
  8
_0-0_0
  6
CONTINUOUS
 62
    7
 10
-19.542567636619224
 20
277.83748201054959
 11
-19.577855406371043
 21
277.79043165088046
  0
LINE
  8
_0-0_0
  6
CONTINUOUS
 62
    7
 10
-19.577855406371043
 20
277.79043165088046
 11
-19.719006485378315
 21
277.7316187012941
  0
LINE
  8
_0-0_0
  6
CONTINUOUS
 62
    7
 10
-19.719006485378315
 20
277.7316187012941
 11
-20.107171952648343
 21
277.68456834162498
  0
LINE
  8
_0-0_0
  6
CONTINUOUS
 62
    7
 10
-20.107171952648343
 20
277.68456834162498
 11
-21.43634461330032
 21
277.37874100377587
  0
LINE
  8
_0-0_0
  6
CONTINUOUS
 62
    7
 10
-21.43634461330032
 20
277.37874100377587
 11
-22.224438137757658
 21
277.1787769751823
  0
LINE
  8
_0-0_0
  6
CONTINUOUS
 62
    7
 10
-22.224438137757658
 20
277.1787769751823
 11
-22.612603605027715
 21
277.02586330625769
  0
LINE
  8
_0-0_0
  6
CONTINUOUS
 62
    7
 10
-22.612603605027715
 20
277.02586330625769
 11
-23.177207921056862
 21
276.84942445749857
  0
LINE
  8
_0-0_0
  6
CONTINUOUS
 62
    7
 10
-23.177207921056862
 20
276.84942445749857
 11
-23.353646769815952
 21
276.7670863280777
  0
LINE
  8
_0-0_0
  6
CONTINUOUS
 62
    7
 10
-23.353646769815952
 20
276.7670863280777
 11
-24.071164754769654
 21
276.49654675998027
  0
LINE
  8
_0-0_0
  6
CONTINUOUS
 62
    7
 10
-24.071164754769654
 20
276.49654675998027
 11
-24.894546048978838
 21
276.13190647254486
  0
LINE
  8
_0-0_0
  6
CONTINUOUS
 62
    7
 10
-24.894546048978838
 20
276.13190647254486
 11
-25.376812235587067
 21
275.88489208428211
  0
LINE
  8
_0-0_0
  6
CONTINUOUS
 62
    7
 10
-25.376812235587067
 20
275.88489208428211
 11
-26.553071227314461
 21
275.23794963883199
  0
LINE
  8
_0-0_0
  6
CONTINUOUS
 62
    7
 10
-26.553071227314461
 20
275.23794963883199
 11
-27.117675543343636
 21
274.88507194131381
  0
LINE
  8
_0-0_0
  6
CONTINUOUS
 62
    7
 10
-27.117675543343636
 20
274.88507194131381
 11
-28.129258276229165
 21
274.17931654627739
  0
LINE
  8
_0-0_0
  6
CONTINUOUS
 62
    7
 10
-28.129258276229165
 20
274.17931654627739
 11
-28.517423743499222
 21
273.89701438826278
  0
LINE
  8
_0-0_0
  6
CONTINUOUS
 62
    7
 10
-28.517423743499222
 20
273.89701438826278
 11
-29.129078419197441
 21
273.86172661851088
  0
LINE
  8
_0-0_0
  6
CONTINUOUS
 62
    7
 10
-29.129078419197441
 20
273.86172661851088
 11
-29.693682735226587
 21
273.89701438826278
  0
LINE
  8
_0-0_0
  6
CONTINUOUS
 62
    7
 10
-29.693682735226587
 20
273.89701438826278
 11
-29.870121583985735
 21
273.86172661851088
  0
LINE
  8
_0-0_0
  6
CONTINUOUS
 62
    7
 10
-29.870121583985735
 20
273.86172661851088
 11
-30.669977698360355
 21
273.8852517983455
  0
LINE
  8
_0-0_0
  6
CONTINUOUS
 62
    7
 10
-30.669977698360355
 20
273.8852517983455
 11
-30.693502878194891
 21
273.89701438826278
  0
LINE
  8
_0-0_0
  6
CONTINUOUS
 62
    7
 10
-30.693502878194891
 20
273.89701438826278
 11
-30.693502878194891
 21
273.9793525176837
  0
LINE
  8
_0-0_0
  6
CONTINUOUS
 62
    7
 10
-30.693502878194891
 20
273.9793525176837
 11
-30.222999281503916
 21
274.3910431647883
  0
LINE
  8
_0-0_0
  6
CONTINUOUS
 62
    7
 10
-30.222999281503916
 20
274.3910431647883
 11
-30.02303525291029
 21
274.54395683371279
  0
LINE
  8
_0-0_0
  6
CONTINUOUS
 62
    7
 10
-30.02303525291029
 20
274.54395683371279
 11
-29.317279857873842
 21
275.1320863295765
  0
LINE
  8
_0-0_0
  6
CONTINUOUS
 62
    7
 10
-29.317279857873842
 20
275.1320863295765
 11
-28.587999283002858
 21
275.68492805568848
  0
LINE
  8
_0-0_0
  6
CONTINUOUS
 62
    7
 10
-28.587999283002858
 20
275.68492805568848
 11
-28.141020866146448
 21
275.96723021370297
  0
LINE
  8
_0-0_0
  6
CONTINUOUS
 62
    7
 10
-28.141020866146448
 20
275.96723021370297
 11
-27.658754679538219
 21
276.2965827313867
  0
LINE
  8
_0-0_0
  6
CONTINUOUS
 62
    7
 10
-27.658754679538219
 20
276.2965827313867
 11
-26.670697126487198
 21
276.86118704741579
  0
LINE
  8
_0-0_0
  6
CONTINUOUS
 62
    7
 10
-26.670697126487198
 20
276.86118704741579
 11
-26.423682738224442
 21
277.00233812642306
  0
LINE
  8
_0-0_0
  6
CONTINUOUS
 62
    7
 10
-26.423682738224442
 20
277.00233812642306
 11
-25.470912954925267
 21
277.48460431303141
  0
LINE
  8
_0-0_0
  6
CONTINUOUS
 62
    7
 10
-25.470912954925267
 20
277.48460431303141
 11
-25.223898566662512
 21
277.56694244245227
  0
LINE
  8
_0-0_0
  6
CONTINUOUS
 62
    7
 10
-25.223898566662512
 20
277.56694244245227
 11
-24.835733099392484
 21
277.77866906096318
  0
LINE
  8
_0-0_0
  6
CONTINUOUS
 62
    7
 10
-24.835733099392484
 20
277.77866906096318
 11
-24.482855401874246
 21
277.896294960136
  0
LINE
  8
_0-0_0
  6
CONTINUOUS
 62
    7
 10
-24.482855401874246
 20
277.896294960136
 11
-24.165265474107854
 21
278.03744603914316
  0
LINE
  8
_0-0_0
  6
CONTINUOUS
 62
    7
 10
-24.165265474107854
 20
278.03744603914316
 11
-23.341884179898698
 21
278.31974819715776
  0
LINE
  8
_0-0_0
  6
CONTINUOUS
 62
    7
 10
-23.341884179898698
 20
278.31974819715776
 11
-22.706704324365887
 21
278.54323740558601
  0
LINE
  8
_0-0_0
  6
CONTINUOUS
 62
    7
 10
-22.706704324365887
 20
278.54323740558601
 11
-22.071524468833104
 21
278.70791366442779
  0
LINE
  8
_0-0_0
  6
CONTINUOUS
 62
    7
 10
-22.071524468833104
 20
278.70791366442779
 11
-21.83627267048763
 21
278.79025179384871
  0
LINE
  8
_0-0_0
  6
CONTINUOUS
 62
    7
 10
-21.83627267048763
 20
278.79025179384871
 11
-21.553970512473057
 21
278.84906474343506
  0
LINE
  8
_0-0_0
  6
CONTINUOUS
 62
    7
 10
-21.553970512473057
 20
278.84906474343506
 11
-20.601200729173854
 21
279.07255395186331
  0
LINE
  8
_0-0_0
  6
CONTINUOUS
 62
    7
 10
-20.601200729173854
 20
279.07255395186331
 11
-19.766056845047444
 21
279.2372302107052
  0
LINE
  8
_0-0_0
  6
CONTINUOUS
 62
    7
 10
-19.766056845047444
 20
279.2372302107052
 11
-19.542567636619224
 21
279.21370503087058
  0
LINE
  8
_0-0_0
  6
CONTINUOUS
 62
    7
 10
-19.542567636619224
 20
279.21370503087058
 11
-19.519042456784688
 21
279.13136690144966
  0
LINE
  8
_0-0_0
  6
CONTINUOUS
 62
    7
 10
-19.777819434964698
 20
278.88435251318696
 11
-19.719006485378315
 21
278.77848920393148
  0
LINE
  8
_0-0_0
  6
CONTINUOUS
 62
    7
 10
-19.719006485378315
 20
278.77848920393148
 11
-19.730769075295597
 21
278.00215826939137
  0
LINE
  8
_0-0_0
  6
CONTINUOUS
 62
    7
 10
-19.730769075295597
 20
278.00215826939137
 11
-19.848394974468334
 21
277.896294960136
  0
LINE
  8
_0-0_0
  6
CONTINUOUS
 62
    7
 10
-19.848394974468334
 20
277.896294960136
 11
-20.36594893082838
 21
277.80219424079768
  0
LINE
  8
_0-0_0
  6
CONTINUOUS
 62
    7
 10
-20.36594893082838
 20
277.80219424079768
 11
-20.577675549339318
 21
277.80219424079768
  0
LINE
  8
_0-0_0
  6
CONTINUOUS
 62
    7
 10
-20.577675549339318
 20
277.80219424079768
 11
-20.895265477105709
 21
277.7080935214596
  0
LINE
  8
_0-0_0
  6
CONTINUOUS
 62
    7
 10
-20.895265477105709
 20
277.7080935214596
 11
-21.553970512473057
 21
277.56694244245227
  0
LINE
  8
_0-0_0
  6
CONTINUOUS
 62
    7
 10
-21.553970512473057
 20
277.56694244245227
 11
-21.942135979743113
 21
277.47284172311395
  0
LINE
  8
_0-0_0
  6
CONTINUOUS
 62
    7
 10
-21.942135979743113
 20
277.47284172311395
 11
-22.200912957923122
 21
277.39050359369321
  0
LINE
  8
_0-0_0
  6
CONTINUOUS
 62
    7
 10
-22.200912957923122
 20
277.39050359369321
 11
-22.883143173125006
 21
277.1787769751823
  0
LINE
  8
_0-0_0
  6
CONTINUOUS
 62
    7
 10
-22.883143173125006
 20
277.1787769751823
 11
-23.70652446733419
 21
276.88471222725036
  0
LINE
  8
_0-0_0
  6
CONTINUOUS
 62
    7
 10
-23.70652446733419
 20
276.88471222725036
 11
-24.541668351460629
 21
276.53183452973206
  0
LINE
  8
_0-0_0
  6
CONTINUOUS
 62
    7
 10
-24.541668351460629
 20
276.53183452973206
 11
-24.77692014980613
 21
276.41420863055935
  0
LINE
  8
_0-0_0
  6
CONTINUOUS
 62
    7
 10
-24.77692014980613
 20
276.41420863055935
 11
-25.788502882691659
 21
275.90841726411656
  0
LINE
  8
_0-0_0
  6
CONTINUOUS
 62
    7
 10
-25.788502882691659
 20
275.90841726411656
 11
-26.200193529796251
 21
275.68492805568848
  0
LINE
  8
_0-0_0
  6
CONTINUOUS
 62
    7
 10
-26.200193529796251
 20
275.68492805568848
 11
-26.882423744998135
 21
275.24971222874927
  0
LINE
  8
_0-0_0
  6
CONTINUOUS
 62
    7
 10
-26.882423744998135
 20
275.24971222874927
 11
-27.011812234088154
 21
275.19089927916286
  0
LINE
  8
_0-0_0
  6
CONTINUOUS
 62
    7
 10
-27.011812234088154
 20
275.19089927916286
 11
-27.235301442516345
 21
275.02622302032108
  0
LINE
  8
_0-0_0
  6
CONTINUOUS
 62
    7
 10
-27.235301442516345
 20
275.02622302032108
 11
-28.435085614078303
 21
274.19107913619455
  0
LINE
  8
_0-0_0
  6
CONTINUOUS
 62
    7
 10
-28.435085614078303
 20
274.19107913619455
 11
-28.64681223258924
 21
274.08521582693907
  0
LINE
  8
_0-0_0
  6
CONTINUOUS
 62
    7
 10
-28.64681223258924
 20
274.08521582693907
 11
-29.199653958701105
 21
274.06169064710456
  0
LINE
  8
_0-0_0
  6
CONTINUOUS
 62
    7
 10
-29.199653958701105
 20
274.06169064710456
 11
-29.881884173902989
 21
274.0734532370219
  0
LINE
  8
_0-0_0
  6
CONTINUOUS
 62
    7
 10
-29.881884173902989
 20
274.0734532370219
 11
-29.940697123489371
 21
274.09697841685647
  0
LINE
  8
_0-0_0
  6
CONTINUOUS
 62
    7
 10
-29.940697123489371
 20
274.09697841685647
 11
-29.987747483158472
 21
274.15579136644277
  0
LINE
  8
_0-0_0
  6
CONTINUOUS
 62
    7
 10
-29.987747483158472
 20
274.15579136644277
 11
-29.952459713406653
 21
274.29694244545009
  0
LINE
  8
_0-0_0
  6
CONTINUOUS
 62
    7
 10
-29.952459713406653
 20
274.29694244545009
 11
-29.470193526798396
 21
274.72039568247197
  0
LINE
  8
_0-0_0
  6
CONTINUOUS
 62
    7
 10
-29.470193526798396
 20
274.72039568247197
 11
-28.470373383830121
 21
275.47320143717746
  0
LINE
  8
_0-0_0
  6
CONTINUOUS
 62
    7
 10
-28.470373383830121
 20
275.47320143717746
 11
-27.43526547111
 21
276.17895683221388
  0
LINE
  8
_0-0_0
  6
CONTINUOUS
 62
    7
 10
-27.43526547111
 20
276.17895683221388
 11
-26.353107198720806
 21
276.79061150791216
  0
LINE
  8
_0-0_0
  6
CONTINUOUS
 62
    7
 10
-26.353107198720806
 20
276.79061150791216
 11
-25.764977702857123
 21
277.11996402559577
  0
LINE
  8
_0-0_0
  6
CONTINUOUS
 62
    7
 10
-25.764977702857123
 20
277.11996402559577
 11
-24.718107200219748
 21
277.60223021220406
  0
LINE
  8
_0-0_0
  6
CONTINUOUS
 62
    7
 10
-24.718107200219748
 20
277.60223021220406
 11
-24.259366193446055
 21
277.79043165088046
  0
LINE
  8
_0-0_0
  6
CONTINUOUS
 62
    7
 10
-24.259366193446055
 20
277.79043165088046
 11
-23.941776265679663
 21
277.91982013997051
  0
LINE
  8
_0-0_0
  6
CONTINUOUS
 62
    7
 10
-23.941776265679663
 20
277.91982013997051
 11
-23.671236697582344
 21
278.01392085930871
  0
LINE
  8
_0-0_0
  6
CONTINUOUS
 62
    7
 10
-23.671236697582344
 20
278.01392085930871
 11
-23.130157561387761
 21
278.20212229798511
  0
LINE
  8
_0-0_0
  6
CONTINUOUS
 62
    7
 10
-23.130157561387761
 20
278.20212229798511
 11
-22.953718712628642
 21
278.24917265765407
  0
LINE
  8
_0-0_0
  6
CONTINUOUS
 62
    7
 10
-22.953718712628642
 20
278.24917265765407
 11
-22.647891374779533
 21
278.35503596690961
  0
LINE
  8
_0-0_0
  6
CONTINUOUS
 62
    7
 10
-22.647891374779533
 20
278.35503596690961
 11
-22.165625188171304
 21
278.50794963583416
  0
LINE
  8
_0-0_0
  6
CONTINUOUS
 62
    7
 10
-22.165625188171304
 20
278.50794963583416
 11
-21.483394972969392
 21
278.672625894676
  0
LINE
  8
_0-0_0
  6
CONTINUOUS
 62
    7
 10
-21.483394972969392
 20
278.672625894676
 11
-21.142279865368465
 21
278.74320143417958
  0
LINE
  8
_0-0_0
  6
CONTINUOUS
 62
    7
 10
-21.142279865368465
 20
278.74320143417958
 11
-20.483574830001145
 21
278.88435251318696
  0
LINE
  8
_0-0_0
  6
CONTINUOUS
 62
    7
 10
-20.483574830001145
 20
278.88435251318696
 11
-20.165984902234754
 21
278.9549280526906
  0
LINE
  8
_0-0_0
  6
CONTINUOUS
 62
    7
 10
-20.165984902234754
 20
278.9549280526906
 11
-19.871920154302898
 21
278.94316546277326
  0
LINE
  8
_0-0_0
  6
CONTINUOUS
 62
    7
 10
-19.871920154302898
 20
278.94316546277326
 11
-19.777819434964698
 21
278.88435251318696
  0
LINE
  8
_0-0_0
  6
CONTINUOUS
 62
    7
 10
-13.131956131704953
 20
279.13136690144966
 11
-12.943754693028552
 21
279.07255395186331
  0
LINE
  8
_0-0_0
  6
CONTINUOUS
 62
    7
 10
-12.943754693028552
 20
279.07255395186331
 11
-12.426200736668505
 21
278.96669064260788
  0
LINE
  8
_0-0_0
  6
CONTINUOUS
 62
    7
 10
-12.426200736668505
 20
278.96669064260788
 11
-12.190948938323003
 21
278.88435251318696
  0
LINE
  8
_0-0_0
  6
CONTINUOUS
 62
    7
 10
-12.190948938323003
 20
278.88435251318696
 11
-11.967459729894812
 21
278.84906474343506
  0
LINE
  8
_0-0_0
  6
CONTINUOUS
 62
    7
 10
-11.967459729894812
 20
278.84906474343506
 11
-11.708682751714775
 21
278.7667266140142
  0
LINE
  8
_0-0_0
  6
CONTINUOUS
 62
    7
 10
-11.708682751714775
 20
278.7667266140142
 11
-11.42638059370023
 21
278.70791366442779
  0
LINE
  8
_0-0_0
  6
CONTINUOUS
 62
    7
 10
-11.42638059370023
 20
278.70791366442779
 11
-10.461848220483773
 21
278.37856114674406
  0
LINE
  8
_0-0_0
  6
CONTINUOUS
 62
    7
 10
-10.461848220483773
 20
278.37856114674406
 11
-10.250121601972807
 21
278.2962230173232
  0
LINE
  8
_0-0_0
  6
CONTINUOUS
 62
    7
 10
-10.250121601972807
 20
278.2962230173232
 11
-9.9678194439582625
 21
278.20212229798511
  0
LINE
  8
_0-0_0
  6
CONTINUOUS
 62
    7
 10
-9.9678194439582625
 20
278.20212229798511
 11
-9.485553257350034
 21
278.01392085930871
  0
LINE
  8
_0-0_0
  6
CONTINUOUS
 62
    7
 10
-9.485553257350034
 20
278.01392085930871
 11
-8.3092942656226398
 21
277.50812949286586
  0
LINE
  8
_0-0_0
  6
CONTINUOUS
 62
    7
 10
-8.3092942656226398
 20
277.50812949286586
 11
-7.438862611744355
 21
277.08467625584398
  0
LINE
  8
_0-0_0
  6
CONTINUOUS
 62
    7
 10
-7.438862611744355
 20
277.08467625584398
 11
-6.6742942671215246
 21
276.62593524907026
  0
LINE
  8
_0-0_0
  6
CONTINUOUS
 62
    7
 10
-6.6742942671215246
 20
276.62593524907026
 11
-6.356704339355133
 21
276.4494964003112
  0
LINE
  8
_0-0_0
  6
CONTINUOUS
 62
    7
 10
-6.356704339355133
 20
276.4494964003112
 11
-6.109689951092406
 21
276.32010791122121
  0
LINE
  8
_0-0_0
  6
CONTINUOUS
 62
    7
 10
-6.109689951092406
 20
276.32010791122121
 11
-5.3215964266350397
 21
275.80255395486119
  0
LINE
  8
_0-0_0
  6
CONTINUOUS
 62
    7
 10
-5.3215964266350397
 20
275.80255395486119
 11
-4.2394381542458745
 21
274.97917266065201
  0
LINE
  8
_0-0_0
  6
CONTINUOUS
 62
    7
 10
-4.2394381542458745
 20
274.97917266065201
 11
-3.1808050616912169
 21
274.0734532370219
  0
LINE
  8
_0-0_0
  6
CONTINUOUS
 62
    7
 10
-3.1808050616912169
 20
274.0734532370219
 11
-3.1102295221875237
 21
273.9793525176837
  0
LINE
  8
_0-0_0
  6
CONTINUOUS
 62
    7
 10
-3.1102295221875237
 20
273.9793525176837
 11
-3.1690424717739347
 21
273.94406474793186
  0
LINE
  8
_0-0_0
  6
CONTINUOUS
 62
    7
 10
-3.1690424717739347
 20
273.94406474793186
 11
-4.5923158517640558
 21
273.94406474793186
  0
LINE
  8
_0-0_0
  6
CONTINUOUS
 62
    7
 10
-4.5923158517640558
 20
273.94406474793186
 11
-5.3451216064696041
 21
273.95582733784908
  0
LINE
  8
_0-0_0
  6
CONTINUOUS
 62
    7
 10
-5.3451216064696041
 20
273.95582733784908
 11
-5.8156252031605504
 21
274.32046762528466
  0
LINE
  8
_0-0_0
  6
CONTINUOUS
 62
    7
 10
-5.8156252031605504
 20
274.32046762528466
 11
-6.0861647712578701
 21
274.50866906396106
  0
LINE
  8
_0-0_0
  6
CONTINUOUS
 62
    7
 10
-6.0861647712578701
 20
274.50866906396106
 11
-6.7095820368733711
 21
274.96741007073467
  0
LINE
  8
_0-0_0
  6
CONTINUOUS
 62
    7
 10
-6.7095820368733711
 20
274.96741007073467
 11
-6.9095460654670546
 21
275.1320863295765
  0
LINE
  8
_0-0_0
  6
CONTINUOUS
 62
    7
 10
-6.9095460654670546
 20
275.1320863295765
 11
-7.1095100940607096
 21
275.2026618690802
  0
LINE
  8
_0-0_0
  6
CONTINUOUS
 62
    7
 10
-7.1095100940607096
 20
275.2026618690802
 11
-7.3682870722407187
 21
275.37910071783926
  0
LINE
  8
_0-0_0
  6
CONTINUOUS
 62
    7
 10
-7.3682870722407187
 20
275.37910071783926
 11
-8.1916683664499032
 21
275.8613669044476
  0
LINE
  8
_0-0_0
  6
CONTINUOUS
 62
    7
 10
-8.1916683664499032
 20
275.8613669044476
 11
-9.085625200162724
 21
276.30834532130387
  0
LINE
  8
_0-0_0
  6
CONTINUOUS
 62
    7
 10
-9.085625200162724
 20
276.30834532130387
 11
-9.6502295161918709
 21
276.5435971196494
  0
LINE
  8
_0-0_0
  6
CONTINUOUS
 62
    7
 10
-9.6502295161918709
 20
276.5435971196494
 11
-9.9678194439582625
 21
276.68474819865679
  0
LINE
  8
_0-0_0
  6
CONTINUOUS
 62
    7
 10
-9.9678194439582625
 20
276.68474819865679
 11
-11.46166836345202
 21
277.21406474493397
  0
LINE
  8
_0-0_0
  6
CONTINUOUS
 62
    7
 10
-11.46166836345202
 20
277.21406474493397
 11
-11.990984909729377
 21
277.3552158239413
  0
LINE
  8
_0-0_0
  6
CONTINUOUS
 62
    7
 10
-11.990984909729377
 20
277.3552158239413
 11
-12.532064045923959
 21
277.49636690294857
  0
LINE
  8
_0-0_0
  6
CONTINUOUS
 62
    7
 10
-12.532064045923959
 20
277.49636690294857
 11
-12.755553254352179
 21
277.5434172626177
  0
LINE
  8
_0-0_0
  6
CONTINUOUS
 62
    7
 10
-12.755553254352179
 20
277.5434172626177
 11
-12.908466923276733
 21
277.59046762228678
  0
LINE
  8
_0-0_0
  6
CONTINUOUS
 62
    7
 10
-12.908466923276733
 20
277.59046762228678
 11
-13.461308649388598
 21
277.67280575170781
  0
LINE
  8
_0-0_0
  6
CONTINUOUS
 62
    7
 10
-13.461308649388598
 20
277.67280575170781
 11
-13.661272677982253
 21
277.71985611137677
  0
LINE
  8
_0-0_0
  6
CONTINUOUS
 62
    7
 10
-13.661272677982253
 20
277.71985611137677
 11
-13.931812246079573
 21
277.74338129121127
  0
LINE
  8
_0-0_0
  6
CONTINUOUS
 62
    7
 10
-13.931812246079573
 20
277.74338129121127
 11
-14.061200735169563
 21
277.79043165088046
  0
LINE
  8
_0-0_0
  6
CONTINUOUS
 62
    7
 10
-14.061200735169563
 20
277.79043165088046
 11
-14.120013684755946
 21
277.8610071903841
  0
LINE
  8
_0-0_0
  6
CONTINUOUS
 62
    7
 10
-14.120013684755946
 20
277.8610071903841
 11
-14.108251094838664
 21
279.2019424409533
  0
LINE
  8
_0-0_0
  6
CONTINUOUS
 62
    7
 10
-14.108251094838664
 20
279.2019424409533
 11
-14.061200735169563
 21
279.2372302107052
  0
LINE
  8
_0-0_0
  6
CONTINUOUS
 62
    7
 10
-14.061200735169563
 20
279.2372302107052
 11
-13.578934548561335
 21
279.19017985103607
  0
LINE
  8
_0-0_0
  6
CONTINUOUS
 62
    7
 10
-13.578934548561335
 20
279.19017985103607
 11
-13.131956131704953
 21
279.13136690144966
  0
LINE
  8
_0-0_0
  6
CONTINUOUS
 62
    7
 10
-13.284869800629479
 20
278.88435251318696
 11
-13.014330232532188
 21
278.88435251318696
  0
LINE
  8
_0-0_0
  6
CONTINUOUS
 62
    7
 10
-13.014330232532188
 20
278.88435251318696
 11
-12.202711528240314
 21
278.68438848459328
  0
LINE
  8
_0-0_0
  6
CONTINUOUS
 62
    7
 10
-12.202711528240314
 20
278.68438848459328
 11
-12.026272679481166
 21
278.62557553500687
  0
LINE
  8
_0-0_0
  6
CONTINUOUS
 62
    7
 10
-12.026272679481166
 20
278.62557553500687
 11
-11.814546060970229
 21
278.59028776525508
  0
LINE
  8
_0-0_0
  6
CONTINUOUS
 62
    7
 10
-11.814546060970229
 20
278.59028776525508
 11
-11.249941744941111
 21
278.43737409633058
  0
LINE
  8
_0-0_0
  6
CONTINUOUS
 62
    7
 10
-11.249941744941111
 20
278.43737409633058
 11
-10.285409371724654
 21
278.11978416856419
  0
LINE
  8
_0-0_0
  6
CONTINUOUS
 62
    7
 10
-10.285409371724654
 20
278.11978416856419
 11
-9.932531674206416
 21
278.00215826939137
  0
LINE
  8
_0-0_0
  6
CONTINUOUS
 62
    7
 10
-9.932531674206416
 20
278.00215826939137
 11
-8.6151216034717492
 21
277.43755395336228
  0
LINE
  8
_0-0_0
  6
CONTINUOUS
 62
    7
 10
-8.6151216034717492
 20
277.43755395336228
 11
-8.2387187261189751
 21
277.23758992476859
  0
LINE
  8
_0-0_0
  6
CONTINUOUS
 62
    7
 10
-8.2387187261189751
 20
277.23758992476859
 11
-8.1093302370289848
 21
277.19053956509947
  0
LINE
  8
_0-0_0
  6
CONTINUOUS
 62
    7
 10
-8.1093302370289848
 20
277.19053956509947
 11
-7.9446539781871194
 21
277.08467625584398
  0
LINE
  8
_0-0_0
  6
CONTINUOUS
 62
    7
 10
-7.9446539781871194
 20
277.08467625584398
 11
-7.662351820172546
 21
276.95528776675399
  0
LINE
  8
_0-0_0
  6
CONTINUOUS
 62
    7
 10
-7.662351820172546
 20
276.95528776675399
 11
-7.0859849142261452
 21
276.61417265915309
  0
LINE
  8
_0-0_0
  6
CONTINUOUS
 62
    7
 10
-7.0859849142261452
 20
276.61417265915309
 11
-6.8507331158806437
 21
276.53183452973206
  0
LINE
  8
_0-0_0
  6
CONTINUOUS
 62
    7
 10
-6.8507331158806437
 20
276.53183452973206
 11
-6.1332151309269704
 21
276.07309352295845
  0
LINE
  8
_0-0_0
  6
CONTINUOUS
 62
    7
 10
-6.1332151309269704
 20
276.07309352295845
 11
-5.7803374334087607
 21
275.8260791346957
  0
LINE
  8
_0-0_0
  6
CONTINUOUS
 62
    7
 10
-5.7803374334087607
 20
275.8260791346957
 11
-5.4392223258078047
 21
275.61435251618479
  0
LINE
  8
_0-0_0
  6
CONTINUOUS
 62
    7
 10
-5.4392223258078047
 20
275.61435251618479
 11
-5.2039705274623315
 21
275.42615107750839
  0
LINE
  8
_0-0_0
  6
CONTINUOUS
 62
    7
 10
-5.2039705274623315
 20
275.42615107750839
 11
-5.0275316787032124
 21
275.32028776825291
  0
LINE
  8
_0-0_0
  6
CONTINUOUS
 62
    7
 10
-5.0275316787032124
 20
275.32028776825291
 11
-4.1688626147422098
 21
274.61453237321649
  0
LINE
  8
_0-0_0
  6
CONTINUOUS
 62
    7
 10
-4.1688626147422098
 20
274.61453237321649
 11
-4.0512367155694732
 21
274.49690647404378
  0
LINE
  8
_0-0_0
  6
CONTINUOUS
 62
    7
 10
-4.0512367155694732
 20
274.49690647404378
 11
-3.9688985861485548
 21
274.47338129420916
  0
LINE
  8
_0-0_0
  6
CONTINUOUS
 62
    7
 10
-3.9688985861485548
 20
274.47338129420916
 11
-3.8512726869758182
 21
274.30870503536738
  0
LINE
  8
_0-0_0
  6
CONTINUOUS
 62
    7
 10
-3.8512726869758182
 20
274.30870503536738
 11
-3.8512726869758182
 21
274.21460431602918
  0
LINE
  8
_0-0_0
  6
CONTINUOUS
 62
    7
 10
-3.8512726869758182
 20
274.21460431602918
 11
-4.0512367155694732
 21
274.13226618660826
  0
LINE
  8
_0-0_0
  6
CONTINUOUS
 62
    7
 10
-4.0512367155694732
 20
274.13226618660826
 11
-5.1922079375450209
 21
274.1440287765256
  0
LINE
  8
_0-0_0
  6
CONTINUOUS
 62
    7
 10
-5.1922079375450209
 20
274.1440287765256
 11
-5.3804093762213938
 21
274.2381294958638
  0
LINE
  8
_0-0_0
  6
CONTINUOUS
 62
    7
 10
-5.3804093762213938
 20
274.2381294958638
 11
-5.9450136922505691
 21
274.6733453228029
  0
LINE
  8
_0-0_0
  6
CONTINUOUS
 62
    7
 10
-5.9450136922505691
 20
274.6733453228029
 11
-7.0154093747224806
 21
275.41438848759111
  0
LINE
  8
_0-0_0
  6
CONTINUOUS
 62
    7
 10
-7.0154093747224806
 20
275.41438848759111
 11
-7.6505892302552638
 21
275.77902877502668
  0
LINE
  8
_0-0_0
  6
CONTINUOUS
 62
    7
 10
-7.6505892302552638
 20
275.77902877502668
 11
-8.3092942656226398
 21
276.17895683221388
  0
LINE
  8
_0-0_0
  6
CONTINUOUS
 62
    7
 10
-8.3092942656226398
 20
276.17895683221388
 11
-8.8856611715690689
 21
276.43773381039397
  0
LINE
  8
_0-0_0
  6
CONTINUOUS
 62
    7
 10
-8.8856611715690689
 20
276.43773381039397
 11
-9.7208050556955072
 21
276.825899277664
  0
LINE
  8
_0-0_0
  6
CONTINUOUS
 62
    7
 10
-9.7208050556955072
 20
276.825899277664
 11
-10.344222321311008
 21
277.06115107600948
  0
LINE
  8
_0-0_0
  6
CONTINUOUS
 62
    7
 10
-10.344222321311008
 20
277.06115107600948
 11
-10.497135990235562
 21
277.13172661551305
  0
LINE
  8
_0-0_0
  6
CONTINUOUS
 62
    7
 10
-10.497135990235562
 20
277.13172661551305
 11
-10.732387788581064
 21
277.2023021550168
  0
LINE
  8
_0-0_0
  6
CONTINUOUS
 62
    7
 10
-10.732387788581064
 20
277.2023021550168
 11
-11.955697139977559
 21
277.59046762228678
  0
LINE
  8
_0-0_0
  6
CONTINUOUS
 62
    7
 10
-11.955697139977559
 20
277.59046762228678
 11
-13.131956131704953
 21
277.82571942063231
  0
LINE
  8
_0-0_0
  6
CONTINUOUS
 62
    7
 10
-13.131956131704953
 20
277.82571942063231
 11
-13.6965604477341
 21
277.896294960136
  0
LINE
  8
_0-0_0
  6
CONTINUOUS
 62
    7
 10
-13.6965604477341
 20
277.896294960136
 11
-13.790661167072272
 21
277.9551079097223
  0
LINE
  8
_0-0_0
  6
CONTINUOUS
 62
    7
 10
-13.790661167072272
 20
277.9551079097223
 11
-13.896524476327755
 21
278.08449639881229
  0
LINE
  8
_0-0_0
  6
CONTINUOUS
 62
    7
 10
-13.896524476327755
 20
278.08449639881229
 11
-13.884761886410444
 21
278.83730215351778
  0
LINE
  8
_0-0_0
  6
CONTINUOUS
 62
    7
 10
-13.884761886410444
 20
278.83730215351778
 11
-13.767135987237736
 21
278.96669064260788
  0
LINE
  8
_0-0_0
  6
CONTINUOUS
 62
    7
 10
-13.767135987237736
 20
278.96669064260788
 11
-13.47307123930588
 21
278.94316546277326
  0
LINE
  8
_0-0_0
  6
CONTINUOUS
 62
    7
 10
-13.47307123930588
 20
278.94316546277326
 11
-13.284869800629479
 21
278.88435251318696
  0
LINE
  8
_0-0_0
  6
CONTINUOUS
 62
    7
 10
-3.2641843827811953
 20
273.94406474793186
 11
-3.1610868468340527
 21
274.047162283879
  0
LINE
  8
_0-0_0
  6
CONTINUOUS
 62
    7
 10
-3.4409610780778052
 20
273.94406474793186
 11
-3.2512785793959437
 21
274.13374724661366
  0
LINE
  8
_0-0_0
  6
CONTINUOUS
 62
    7
 10
-2.0266099683457809
 20
275.5351925529606
 11
-1.7952243763747048
 21
275.7665781449316
  0
LINE
  8
_0-0_0
  6
CONTINUOUS
 62
    7
 10
-3.6177377733744435
 20
273.94406474793186
 11
-3.3465474571007121
 21
274.21525506420556
  0
LINE
  8
_0-0_0
  6
CONTINUOUS
 62
    7
 10
-2.4554798006156204
 20
275.2830994159874
 11
-1.547897408994288
 21
276.19068180760871
  0
LINE
  8
_0-0_0
  6
CONTINUOUS
 62
    7
 10
-3.7945144686710818
 20
273.94406474793186
 11
-3.4418163348055088
 21
274.29676288179746
  0
LINE
  8
_0-0_0
  6
CONTINUOUS
 62
    7
 10
-2.6896473785486989
 20
275.22570853335088
 11
-1.4733038257946589
 21
276.44205208610497
  0
LINE
  8
_0-0_0
  6
CONTINUOUS
 62
    7
 10
-3.9712911639677201
 20
273.94406474793186
 11
-3.5370852125102771
 21
274.3782706993893
  0
LINE
  8
_0-0_0
  6
CONTINUOUS
 62
    7
 10
-3.8512726869758182
 20
274.24085992022037
 11
-3.6323540902150739
 21
274.4597785169812
  0
LINE
  8
_0-0_0
  6
CONTINUOUS
 62
    7
 10
-2.9007782573071949
 20
275.19135434988896
 11
-1.4692861736288023
 21
276.62284643356736
  0
LINE
  8
_0-0_0
  6
CONTINUOUS
 62
    7
 10
-4.1480678592643585
 20
273.94406474793186
 11
-3.8959072141009301
 21
274.19622539309528
  0
LINE
  8
_0-0_0
  6
CONTINUOUS
 62
    7
 10
-3.8966608453715139
 20
274.37224845712137
 11
-3.7276229679198422
 21
274.5412863345731
  0
LINE
  8
_0-0_0
  6
CONTINUOUS
 62
    7
 10
-3.0480921700544172
 20
275.22081713243846
 11
-1.4652685214629741
 21
276.80364078102991
  0
LINE
  8
_0-0_0
  6
CONTINUOUS
 62
    7
 10
-4.3248445545609968
 20
273.94406474793186
 11
-4.1357716220038582
 21
274.13313768048897
  0
LINE
  8
_0-0_0
  6
CONTINUOUS
 62
    7
 10
-3.9715477885954726
 20
274.47413820919399
 11
-3.8228918456246105
 21
274.62279415216499
  0
LINE
  8
_0-0_0
  6
CONTINUOUS
 62
    7
 10
-3.195406082801611
 20
275.25027991498791
 11
-1.4817494656635687
 21
276.96393653212589
  0
LINE
  8
_0-0_0
  6
CONTINUOUS
 62
    7
 10
-4.5016212498576351
 20
273.94406474793186
 11
-4.3107444734709474
 21
274.1349415243186
  0
LINE
  8
_0-0_0
  6
CONTINUOUS
 62
    7
 10
-4.0883964673059267
 20
274.53406622578017
 11
-3.9181607233293789
 21
274.70430196975678
  0
LINE
  8
_0-0_0
  6
CONTINUOUS
 62
    7
 10
-3.3427199955488049
 20
275.27974269753735
 11
-1.5217099284250821
 21
277.10075276466108
  0
LINE
  8
_0-0_0
  6
CONTINUOUS
 62
    7
 10
-4.6770736052559698
 20
273.94538908783016
 11
-4.4857173249380082
 21
274.13674536814806
  0
LINE
  8
_0-0_0
  6
CONTINUOUS
 62
    7
 10
-4.1775591653509138
 20
274.62168022303188
 11
-4.0134296010341472
 21
274.78580978734856
  0
LINE
  8
_0-0_0
  6
CONTINUOUS
 62
    7
 10
-3.4833338897053067
 20
275.31590549867746
 11
-1.5688503805041875
 21
277.23038900787861
  0
LINE
  8
_0-0_0
  6
CONTINUOUS
 62
    7
 10
-4.8511306590864933
 20
273.94810872929627
 11
-4.6606901764050689
 21
274.1385492119777
  0
LINE
  8
_0-0_0
  6
CONTINUOUS
 62
    7
 10
-4.2745869755513297
 20
274.70142910812808
 11
-4.1086984787389155
 21
274.86731760494046
  0
LINE
  8
_0-0_0
  6
CONTINUOUS
 62
    7
 10
-3.6147832272335733
 20
275.36123285644589
 11
-1.615990832583293
 21
277.3600252510962
  0
LINE
  8
_0-0_0
  6
CONTINUOUS
 62
    7
 10
-5.0251877129170452
 20
273.95082837076239
 11
-4.8356630278721581
 21
274.14035305580728
  0
LINE
  8
_0-0_0
  6
CONTINUOUS
 62
    7
 10
-3.7462325647618399
 20
275.4065602142142
 11
-3.0704465869286536
 21
276.08234619204739
  0
LINE
  8
_0-0_0
  6
CONTINUOUS
 62
    7
 10
-4.3716147857517171
 20
274.78117799322438
 11
-4.2039673564436839
 21
274.94882542253236
  0
LINE
  8
_0-0_0
  6
CONTINUOUS
 62
    7
 10
-2.4533225530230424
 20
276.699470225953
 11
-1.6720932990728272
 21
277.4806994799033
  0
LINE
  8
_0-0_0
  6
CONTINUOUS
 62
    7
 10
-5.1992447667475687
 20
273.9535480122285
 11
-5.0106358793392473
 21
274.1421568996368
  0
LINE
  8
_0-0_0
  6
CONTINUOUS
 62
    7
 10
-3.8643795955112523
 20
275.46518987876146
 11
-3.335128114792127
 21
275.99444135948056
  0
LINE
  8
_0-0_0
  6
CONTINUOUS
 62
    7
 10
-4.4686425959521329
 20
274.86092687832046
 11
-4.3024517138908322
 21
275.02711776038188
  0
LINE
  8
_0-0_0
  6
CONTINUOUS
 62
    7
 10
-2.3518254126655051
 20
276.97774406160721
 11
-1.7374238168998488
 21
277.59214565737289
  0
LINE
  8
_0-0_0
  6
CONTINUOUS
 62
    7
 10
-5.3612458486971945
 20
273.96832362557557
 11
-5.1856087308063365
 21
274.14396074346637
  0
LINE
  8
_0-0_0
  6
CONTINUOUS
 62
    7
 10
-3.9797496492838035
 20
275.52659652028546
 11
-3.5304377171235046
 21
275.97590845244576
  0
LINE
  8
_0-0_0
  6
CONTINUOUS
 62
    7
 10
-4.5656704061525488
 20
274.94067576341677
 11
-4.4028434173926314
 21
275.10350275217666
  0
LINE
  8
_0-0_0
  6
CONTINUOUS
 62
    7
 10
-2.3034372139775598
 20
277.20290895559179
 11
-1.8027543347268704
 21
277.70359183484248
  0
LINE
  8
_0-0_0
  6
CONTINUOUS
 62
    7
 10
-5.4608383530896276
 20
274.04550781647969
 11
-5.3056142412108897
 21
274.20073192835837
  0
LINE
  8
_0-0_0
  6
CONTINUOUS
 62
    7
 10
-4.0951197030563548
 20
275.58800316180958
 11
-3.6695406904716776
 21
276.01358217439428
  0
LINE
  8
_0-0_0
  6
CONTINUOUS
 62
    7
 10
-4.6626982163529646
 20
275.02042464851297
 11
-4.5032351208944305
 21
275.17988774397156
  0
LINE
  8
_0-0_0
  6
CONTINUOUS
 62
    7
 10
-2.3328999965270043
 20
277.35022286833896
 11
-1.8753439808604639
 21
277.80777888400547
  0
LINE
  8
_0-0_0
  6
CONTINUOUS
 62
    7
 10
-5.5604308574821175
 20
274.12269200738387
 11
-5.4168803368505962
 21
274.26624252801536
  0
LINE
  8
_0-0_0
  6
CONTINUOUS
 62
    7
 10
-4.2104897568288777
 20
275.64940980333381
 11
-3.8086436638198506
 21
276.0512558963428
  0
LINE
  8
_0-0_0
  6
CONTINUOUS
 62
    7
 10
-4.7597260265533805
 20
275.10017353360916
 11
-4.6036268243962297
 21
275.2562727357664
  0
LINE
  8
_0-0_0
  6
CONTINUOUS
 62
    7
 10
-2.3623627790764487
 20
277.49753678108618
 11
-1.9574826473619566
 21
277.90241691280067
  0
LINE
  8
_0-0_0
  6
CONTINUOUS
 62
    7
 10
-5.6600233618746074
 20
274.19987619828799
 11
-5.516707176547527
 21
274.34319238361507
  0
LINE
  8
_0-0_0
  6
CONTINUOUS
 62
    7
 10
-4.3258598106014289
 20
275.71081644485781
 11
-3.9477466371680236
 21
276.08892961829116
  0
LINE
  8
_0-0_0
  6
CONTINUOUS
 62
    7
 10
-4.8567538367537963
 20
275.17992241870547
 11
-4.7040185278980004
 21
275.33265772756118
  0
LINE
  8
_0-0_0
  6
CONTINUOUS
 62
    7
 10
-2.4211233553308773
 20
277.61555290012836
 11
-2.0396213138633925
 21
277.99705494159576
  0
LINE
  8
_0-0_0
  6
CONTINUOUS
 62
    7
 10
-5.7596158662670688
 20
274.27706038919217
 11
-5.6165340162444294
 21
274.42014223921478
  0
LINE
  8
_0-0_0
  6
CONTINUOUS
 62
    7
 10
-4.4412298643739518
 20
275.77222308638187
 11
-4.0830151864764729
 21
276.1304377642794
  0
LINE
  8
_0-0_0
  6
CONTINUOUS
 62
    7
 10
-4.9537816469542121
 20
275.25967130380166
 11
-4.8044102313997996
 21
275.40904271935607
  0
LINE
  8
_0-0_0
  6
CONTINUOUS
 62
    7
 10
-2.4887144447090179
 20
277.72473850604689
 11
-2.1217599803648852
 21
278.09169297039107
  0
LINE
  8
_0-0_0
  6
CONTINUOUS
 62
    7
 10
-5.8612478393950766
 20
274.35220511136077
 11
-5.7163608559413603
 21
274.49709209481449
  0
LINE
  8
_0-0_0
  6
CONTINUOUS
 62
    7
 10
-4.5479154428511492
 20
275.84231420320139
 11
-4.1997545135591565
 21
276.19047513249336
  0
LINE
  8
_0-0_0
  6
CONTINUOUS
 62
    7
 10
-5.0540380531384414
 20
275.33619159291407
 11
-4.9048019349015987
 21
275.48542771115086
  0
LINE
  8
_0-0_0
  6
CONTINUOUS
 62
    7
 10
-2.5563055340871301
 20
277.83392411196535
 11
-2.2038986468663495
 21
278.18633099918616
  0
LINE
  8
_0-0_0
  6
CONTINUOUS
 62
    7
 10
-5.9655007622623088
 20
274.42472888379018
 11
-5.8161876956382911
 21
274.57404195041431
  0
LINE
  8
_0-0_0
  6
CONTINUOUS
 62
    7
 10
-4.6461247180159546
 20
275.92088162333317
 11
-4.31649384064184
 21
276.25051250070725
  0
LINE
  8
_0-0_0
  6
CONTINUOUS
 62
    7
 10
-5.1645234876988581
 20
275.40248285365026
 11
-5.0051936384033979
 21
275.56181270294575
  0
LINE
  8
_0-0_0
  6
CONTINUOUS
 62
    7
 10
-2.6238966234652423
 20
277.94310971788388
 11
-2.2860373133678137
 21
278.28096902798131
  0
LINE
  8
_0-0_0
  6
CONTINUOUS
 62
    7
 10
-6.0697536851295694
 20
274.49725265621958
 11
-5.9160145353351936
 21
274.65099180601396
  0
LINE
  8
_0-0_0
  6
CONTINUOUS
 62
    7
 10
-4.7443339931807315
 20
275.99944904346506
 11
-4.4332331677245235
 21
276.31054986892127
  0
LINE
  8
_0-0_0
  6
CONTINUOUS
 62
    7
 10
-5.2671157672818083
 20
275.47666726936398
 11
-5.105585341905197
 21
275.63819769474059
  0
LINE
  8
_0-0_0
  6
CONTINUOUS
 62
    7
 10
-2.6983686648366642
 20
278.0454143718091
 11
-2.368175979869278
 21
278.37560705677645
  0
LINE
  8
_0-0_0
  6
CONTINUOUS
 62
    7
 10
-6.1719724633842361
 20
274.57181057326158
 11
-6.0191278868278743
 21
274.72465514981786
  0
LINE
  8
_0-0_0
  6
CONTINUOUS
 62
    7
 10
-4.8425432683455369
 20
276.07801646359689
 11
-4.5373895556082857
 21
276.3831701763342
  0
LINE
  8
_0-0_0
  6
CONTINUOUS
 62
    7
 10
-5.3653250424466136
 20
275.55523468949576
 11
-5.2059770454069962
 21
275.71458268653549
  0
LINE
  8
_0-0_0
  6
CONTINUOUS
 62
    7
 10
-2.7941915463993325
 20
278.12636818554307
 11
-2.4618877082611447
 21
278.45867202368128
  0
LINE
  8
_0-0_0
  6
CONTINUOUS
 62
    7
 10
-6.2738112117616537
 20
274.64674852018077
 11
-6.1235868431395203
 21
274.79697288880288
  0
LINE
  8
_0-0_0
  6
CONTINUOUS
 62
    7
 10
-4.9407525435103423
 20
276.15658388372878
 11
-4.6346167380214069
 21
276.46271968921769
  0
LINE
  8
_0-0_0
  6
CONTINUOUS
 62
    7
 10
-5.4662241550024646
 20
275.63111227223669
 11
-5.3063687489087669
 21
275.79096767833027
  0
LINE
  8
_0-0_0
  6
CONTINUOUS
 62
    7
 10
-2.8900144279620008
 20
278.20732199927709
 11
-2.5577304948677692
 21
278.53960593237127
  0
LINE
  8
_0-0_0
  6
CONTINUOUS
 62
    7
 10
-6.375649960139043
 20
274.72168646709997
 11
-6.2280457994511664
 21
274.8692906277879
  0
LINE
  8
_0-0_0
  6
CONTINUOUS
 62
    7
 10
-5.0389618186751476
 20
276.23515130386056
 11
-4.731843920434585
 21
276.54226920210106
  0
LINE
  8
_0-0_0
  6
CONTINUOUS
 62
    7
 10
-5.5752991372067413
 20
275.69881398532896
 11
-5.4121144775327536
 21
275.86199864500287
  0
LINE
  8
_0-0_0
  6
CONTINUOUS
 62
    7
 10
-2.985837309524669
 20
278.28827581301101
 11
-2.6535732814743653
 21
278.62053984106125
  0
LINE
  8
_0-0_0
  6
CONTINUOUS
 62
    7
 10
-6.4774887085164607
 20
274.79662441401916
 11
-6.3325047557628124
 21
274.94160836677286
  0
LINE
  8
_0-0_0
  6
CONTINUOUS
 62
    7
 10
-5.1371710938399246
 20
276.31371872399239
 11
-4.8159605153056759
 21
276.6349293025267
  0
LINE
  8
_0-0_0
  6
CONTINUOUS
 62
    7
 10
-5.6843741194110748
 20
275.7665156984213
 11
-5.5188175278469486
 21
275.93207228998539
  0
LINE
  8
_0-0_0
  6
CONTINUOUS
 62
    7
 10
-3.0816601910873373
 20
278.36922962674509
 11
-2.7494160680809898
 21
278.70147374975135
  0
LINE
  8
_0-0_0
  6
CONTINUOUS
 62
    7
 10
-6.5793274568938784
 20
274.87156236093846
 11
-6.4369637120744869
 21
275.01392610575788
  0
LINE
  8
_0-0_0
  6
CONTINUOUS
 62
    7
 10
-5.23194795333103
 20
276.39571855979789
 11
-4.8998545401921944
 21
276.72781197293676
  0
LINE
  8
_0-0_0
  6
CONTINUOUS
 62
    7
 10
-5.7928374010702441
 20
275.83482911205879
 11
-5.6255205781611152
 21
276.00214593496787
  0
LINE
  8
_0-0_0
  6
CONTINUOUS
 62
    7
 10
-3.1774830726500056
 20
278.450183440479
 11
-2.8452588546875858
 21
278.7824076584414
  0
LINE
  8
_0-0_0
  6
CONTINUOUS
 62
    7
 10
-6.6811662052712676
 20
274.94650030785766
 11
-6.5414226683861329
 21
275.0862438447429
  0
LINE
  8
_0-0_0
  6
CONTINUOUS
 62
    7
 10
-5.319425080900487
 20
276.4850181275251
 11
-4.9837485650787414
 21
276.82069464334688
  0
LINE
  8
_0-0_0
  6
CONTINUOUS
 62
    7
 10
-5.8968236924212078
 20
275.9076195160045
 11
-5.7322236284753103
 21
276.07221957995028
  0
LINE
  8
_0-0_0
  6
CONTINUOUS
 62
    7
 10
-3.2733059542126738
 20
278.53113725421297
 11
-2.941288527037841
 21
278.86315468138781
  0
LINE
  8
_0-0_0
  6
CONTINUOUS
 62
    7
 10
-6.7794745760313901
 20
275.02496863239429
 11
-6.6458816246977789
 21
275.15856158372787
  0
LINE
  8
_0-0_0
  6
CONTINUOUS
 62
    7
 10
-5.4069022084699724
 20
276.57431769525226
 11
-5.0665328699062683
 21
276.91468703381599
  0
LINE
  8
_0-0_0
  6
CONTINUOUS
 62
    7
 10
-6.0008099837721431
 20
275.98040991995009
 11
-5.8389266787895053
 21
276.14229322493281
  0
LINE
  8
_0-0_0
  6
CONTINUOUS
 62
    7
 10
-3.3716326104531617
 20
278.6095872932691
 11
-3.0377121790178307
 21
278.94350772470437
  0
LINE
  8
_0-0_0
  6
CONTINUOUS
 62
    7
 10
-6.8764166347424406
 20
275.10480326897976
 11
-6.750340581009425
 21
275.23087932271278
  0
LINE
  8
_0-0_0
  6
CONTINUOUS
 62
    7
 10
-5.4943793360394295
 20
276.66361726297947
 11
-5.1311243547261824
 21
277.02687224429269
  0
LINE
  8
_0-0_0
  6
CONTINUOUS
 62
    7
 10
-6.1047962751231352
 20
276.05320032389579
 11
-5.9456297291037003
 21
276.21236686991517
  0
LINE
  8
_0-0_0
  6
CONTINUOUS
 62
    7
 10
-3.487642316741585
 20
278.67035428227728
 11
-3.1480443788697982
 21
279.0099522201491
  0
LINE
  8
_0-0_0
  6
CONTINUOUS
 62
    7
 10
-6.9955543901444343
 20
275.16244220887438
 11
-6.854799537321071
 21
275.3031970616978
  0
LINE
  8
_0-0_0
  6
CONTINUOUS
 62
    7
 10
-5.5818564636089149
 20
276.75291683070656
 11
-5.1957158395460965
 21
277.13905745476938
  0
LINE
  8
_0-0_0
  6
CONTINUOUS
 62
    7
 10
-6.2115785615893059
 20
276.12319473272617
 11
-6.0523327794178953
 21
276.2824405148977
  0
LINE
  8
_0-0_0
  6
CONTINUOUS
 62
    7
 10
-3.6036520230300084
 20
278.73112127128547
 11
-3.2606808572889178
 21
279.0740924370267
  0
LINE
  8
_0-0_0
  6
CONTINUOUS
 62
    7
 10
-7.1229487234077737
 20
275.21182457090776
 11
-6.959258493632717
 21
275.37551480068276
  0
LINE
  8
_0-0_0
  6
CONTINUOUS
 62
    7
 10
-5.6693335911783719
 20
276.84221639843377
 11
-5.2603073243660389
 21
277.25124266524619
  0
LINE
  8
_0-0_0
  6
CONTINUOUS
 62
    7
 10
-6.3194123457202522
 20
276.19213764389189
 11
-6.1633397846320576
 21
276.34821020498009
  0
LINE
  8
_0-0_0
  6
CONTINUOUS
 62
    7
 10
-3.7400043557659898
 20
278.77154563384618
 11
-3.373317335708009
 21
279.13823265390419
  0
LINE
  8
_0-0_0
  6
CONTINUOUS
 62
    7
 10
-7.2280591908814528
 20
275.28349079873066
 11
-7.0673460203003912
 21
275.44420396931178
  0
LINE
  8
_0-0_0
  6
CONTINUOUS
 62
    7
 10
-5.756810718747829
 20
276.93151596616087
 11
-5.3119123305003483
 21
277.37641435440838
  0
LINE
  8
_0-0_0
  6
CONTINUOUS
 62
    7
 10
-6.4272461298512268
 20
276.26108055505756
 11
-6.2793494909205094
 21
276.40897719398839
  0
LINE
  8
_0-0_0
  6
CONTINUOUS
 62
    7
 10
-3.8764635591528531
 20
278.81186312575596
 11
-3.4859538141271002
 21
279.20237287078168
  0
LINE
  8
_0-0_0
  6
CONTINUOUS
 62
    7
 10
-7.333169658355132
 20
275.35515702655368
 11
-7.1796512149594491
 21
275.50867546994936
  0
LINE
  8
_0-0_0
  6
CONTINUOUS
 62
    7
 10
-5.8306032326308923
 20
277.03450014757447
 11
-5.3547672869358962
 21
277.51033609326947
  0
LINE
  8
_0-0_0
  6
CONTINUOUS
 62
    7
 10
-6.5350799139821731
 20
276.33002346622328
 11
-6.3945703225588488
 21
276.4705330576466
  0
LINE
  8
_0-0_0
  6
CONTINUOUS
 62
    7
 10
-4.0129227625397447
 20
278.85218061766568
 11
-3.5985902925461914
 21
279.26651308765917
  0
LINE
  8
_0-0_0
  6
CONTINUOUS
 62
    7
 10
-7.4425221290765648
 20
275.42258125112886
 11
-7.2919564096184785
 21
275.573146970587
  0
LINE
  8
_0-0_0
  6
CONTINUOUS
 62
    7
 10
-5.9022694604538514
 20
277.13961061504829
 11
-5.3691983640645162
 21
277.67268171143757
  0
LINE
  8
_0-0_0
  6
CONTINUOUS
 62
    7
 10
-6.6429136981131193
 20
276.39896637738888
 11
-6.5082124838209551
 21
276.53366759168119
  0
LINE
  8
_0-0_0
  6
CONTINUOUS
 62
    7
 10
-4.163480113522155
 20
278.87839996197999
 11
-3.7112267709652826
 21
279.33065330453678
  0
LINE
  8
_0-0_0
  6
CONTINUOUS
 62
    7
 10
-7.5540029279122791
 20
275.48787714758981
 11
-7.404261604277508
 21
275.63761847122458
  0
LINE
  8
_0-0_0
  6
CONTINUOUS
 62
    7
 10
-5.9675899338744216
 20
277.25106683692428
 11
-5.328927897228084
 21
277.88972887357056
  0
LINE
  8
_0-0_0
  6
CONTINUOUS
 62
    7
 10
-6.7507474822440656
 20
276.46790928855466
 11
-6.6218546450830899
 21
276.59680212571561
  0
LINE
  8
_0-0_0
  6
CONTINUOUS
 62
    7
 10
-4.3700041572246846
 20
278.84865261357396
 11
-3.8238632493843738
 21
279.39479352141427
  0
LINE
  8
_0-0_0
  6
CONTINUOUS
 62
    7
 10
-7.6654837267479933
 20
275.5531730440507
 11
-7.5165667989365658
 21
275.70208997186216
  0
LINE
  8
_0-0_0
  6
CONTINUOUS
 62
    7
 10
-6.0235319260569042
 20
277.37190154003849
 11
-5.0937409142333649
 21
278.301692551862
  0
LINE
  8
_0-0_0
  6
CONTINUOUS
 62
    7
 10
-6.860263353275144
 20
276.53517011282019
 11
-6.7337967358112109
 21
276.66163673028415
  0
LINE
  8
_0-0_0
  6
CONTINUOUS
 62
    7
 10
-4.7715516324000759
 20
278.62388183369529
 11
-3.9449245200961797
 21
279.45050894599916
  0
LINE
  8
_0-0_0
  6
CONTINUOUS
 62
    7
 10
-7.7769645255837076
 20
275.6184689405116
 11
-7.6288719935955953
 21
275.7665614724998
  0
LINE
  8
_0-0_0
  6
CONTINUOUS
 62
    7
 10
-6.9912090534948561
 20
276.58100110789706
 11
-6.8442821703716276
 21
276.7279279910204
  0
LINE
  8
_0-0_0
  6
CONTINUOUS
 62
    7
 10
-6.0794739182393868
 20
277.49273624315259
 11
-4.0824175053269016
 21
279.4897926560651
  0
LINE
  8
_0-0_0
  6
CONTINUOUS
 62
    7
 10
-7.8884453244194503
 20
275.68376483697261
 11
-7.7393132385015803
 21
275.83289692289037
  0
LINE
  8
_0-0_0
  6
CONTINUOUS
 62
    7
 10
-7.1166597204077106
 20
276.63232713628099
 11
-6.9547676049320159
 21
276.7942192517566
  0
LINE
  8
_0-0_0
  6
CONTINUOUS
 62
    7
 10
-6.1354159104218695
 20
277.6135709462668
 11
-4.2199104905576234
 21
279.52907636613099
  0
LINE
  8
_0-0_0
  6
CONTINUOUS
 62
    7
 10
-7.9999261232551361
 20
275.7490607334335
 11
-7.8493076266861407
 21
275.8996792300025
  0
LINE
  8
_0-0_0
  6
CONTINUOUS
 62
    7
 10
-7.2277117469402014
 20
276.69805180504511
 11
-7.0652530394924042
 21
276.8605105124929
  0
LINE
  8
_0-0_0
  6
CONTINUOUS
 62
    7
 10
-6.1913579026043521
 20
277.7344056493809
 11
-4.3574034757883453
 21
279.56836007619699
  0
LINE
  8
_0-0_0
  6
CONTINUOUS
 62
    7
 10
-8.1114069220908788
 20
275.8143566298944
 11
-7.9593020148707012
 21
275.96646153711446
  0
LINE
  8
_0-0_0
  6
CONTINUOUS
 62
    7
 10
-7.3387637734726922
 20
276.76377647380917
 11
-7.1757384740527925
 21
276.9268017732291
  0
LINE
  8
_0-0_0
  6
CONTINUOUS
 62
    7
 10
-6.2434084062740566
 20
277.8591318410078
 11
-4.4994024419924869
 21
279.6031378052894
  0
LINE
  8
_0-0_0
  6
CONTINUOUS
 62
    7
 10
-8.2246716840395492
 20
275.87786856324237
 11
-8.06929640305529
 21
276.0332438442266
  0
LINE
  8
_0-0_0
  6
CONTINUOUS
 62
    7
 10
-7.4498158000052114
 20
276.8295011425734
 11
-7.2862239086132092
 21
276.9930930339654
  0
LINE
  8
_0-0_0
  6
CONTINUOUS
 62
    7
 10
-6.2728711888235295
 20
278.00644575375508
 11
-4.6675558838600181
 21
279.61176105871851
  0
LINE
  8
_0-0_0
  6
CONTINUOUS
 62
    7
 10
-8.3425228142372986
 20
275.93679412834126
 11
-8.1792907912398504
 21
276.10002615133868
  0
LINE
  8
_0-0_0
  6
CONTINUOUS
 62
    7
 10
-7.5608678265377022
 20
276.89522581133746
 11
-7.3967093431735975
 21
277.05938429470148
  0
LINE
  8
_0-0_0
  6
CONTINUOUS
 62
    7
 10
-6.2718301190973022
 20
278.18426351877786
 11
-4.8357093257275494
 21
279.62038431214756
  0
LINE
  8
_0-0_0
  6
CONTINUOUS
 62
    7
 10
-8.460373944435048
 20
275.99571969344009
 11
-8.2892851794244393
 21
276.16680845845075
  0
LINE
  8
_0-0_0
  6
CONTINUOUS
 62
    7
 10
-7.6727957604550169
 20
276.96007457271679
 11
-7.5124128704095767
 21
277.12045746276226
  0
LINE
  8
_0-0_0
  6
CONTINUOUS
 62
    7
 10
-6.2458335462595755
 20
278.38703678691217
 11
-5.0280423484831828
 21
279.60482798468871
  0
LINE
  8
_0-0_0
  6
CONTINUOUS
 62
    7
 10
-8.5782250746328259
 20
276.05464525853898
 11
-8.4091019069103367
 21
276.22376842626147
  0
LINE
  8
_0-0_0
  6
CONTINUOUS
 62
    7
 10
-7.7940140658012637
 20
277.01563296266721
 11
-7.6313353745182155
 21
277.17831165395017
  0
LINE
  8
_0-0_0
  6
CONTINUOUS
 62
    7
 10
-6.1764594877305682
 20
278.63318754073787
 11
-5.2881724992534486
 21
279.52147452921497
  0
LINE
  8
_0-0_0
  6
CONTINUOUS
 62
    7
 10
-8.6960762048305753
 20
276.11357082363787
 11
-8.5311027247911113
 21
276.27854430367727
  0
LINE
  8
_0-0_0
  6
CONTINUOUS
 62
    7
 10
-7.367536632622091
 20
277.61888709114299
 11
-7.2672287517493998
 21
277.71919497201571
  0
LINE
  8
_0-0_0
  6
CONTINUOUS
 62
    7
 10
-7.9152323711475389
 20
277.07119135261746
 11
-7.7502578786268827
 21
277.2361658451382
  0
LINE
  8
_0-0_0
  6
CONTINUOUS
 62
    7
 10
-5.9046078327285442
 20
279.08181589103651
 11
-5.7221934421141611
 21
279.26423028165089
  0
LINE
  8
_0-0_0
  6
CONTINUOUS
 62
    7
 10
-8.8139273350283247
 20
276.17249638873676
 11
-8.6531035426718858
 21
276.33332018109319
  0
LINE
  8
_0-0_0
  6
CONTINUOUS
 62
    7
 10
-8.0261401777709693
 20
277.13706024129078
 11
-7.8691803827355215
 21
277.29402003632617
  0
LINE
  8
_0-0_0
  6
CONTINUOUS
 62
    7
 10
-7.4899204985966889
 20
277.673279920465
 11
-7.3137489347221844
 21
277.84945148433951
  0
LINE
  8
_0-0_0
  6
CONTINUOUS
 62
    7
 10
-8.9317784652261025
 20
276.2314219538357
 11
-8.7751043605526604
 21
276.38809605850906
  0
LINE
  8
_0-0_0
  6
CONTINUOUS
 62
    7
 10
-8.1387422659975641
 20
277.20123484836079
 11
-7.9881028868441603
 21
277.3518742275142
  0
LINE
  8
_0-0_0
  6
CONTINUOUS
 62
    7
 10
-7.6123043645712868
 20
277.72767274978707
 11
-7.3602691176949974
 21
277.97970799666336
  0
LINE
  8
_0-0_0
  6
CONTINUOUS
 62
    7
 10
-9.0496295954238519
 20
276.29034751893448
 11
-8.8969816658004958
 21
276.44299544855789
  0
LINE
  8
_0-0_0
  6
CONTINUOUS
 62
    7
 10
-8.265131891028318
 20
277.25162191862671
 11
-8.1070253909527991
 21
277.40972841870217
  0
LINE
  8
_0-0_0
  6
CONTINUOUS
 62
    7
 10
-7.7346882305458848
 20
277.78206557910908
 11
-7.4130753787783305
 21
278.10367843087658
  0
LINE
  8
_0-0_0
  6
CONTINUOUS
 62
    7
 10
-9.172295756530957
 20
276.34445805312395
 11
-9.0176657558587862
 21
276.49908805379618
  0
LINE
  8
_0-0_0
  6
CONTINUOUS
 62
    7
 10
-8.3805778961200019
 20
277.3129526088316
 11
-8.2259478950614379
 21
277.4675826098902
  0
LINE
  8
_0-0_0
  6
CONTINUOUS
 62
    7
 10
-7.8536456797571361
 20
277.83988482519447
 11
-7.46719069366506
 21
278.2263398112866
  0
LINE
  8
_0-0_0
  6
CONTINUOUS
 62
    7
 10
-9.2970793061521135
 20
276.39645119879946
 11
-9.1383498459170482
 21
276.55518065903459
  0
LINE
  8
_0-0_0
  6
CONTINUOUS
 62
    7
 10
-8.4960239012116858
 20
277.37428329903656
 11
-8.3462756934266622
 21
277.52403150682158
  0
LINE
  8
_0-0_0
  6
CONTINUOUS
 62
    7
 10
-7.9705902627995328
 20
277.89971693744865
 11
-7.5213060085517895
 21
278.34900119169645
  0
LINE
  8
_0-0_0
  6
CONTINUOUS
 62
    7
 10
-9.4218628557732415
 20
276.44844434447497
 11
-9.2590339359753386
 21
276.61127326427299
  0
LINE
  8
_0-0_0
  6
CONTINUOUS
 62
    7
 10
-8.0875348458419296
 20
277.95954904970301
 11
-7.575421323438519
 21
278.47166257210636
  0
LINE
  8
_0-0_0
  6
CONTINUOUS
 62
    7
 10
-8.6114699063033697
 20
277.43561398924146
 11
-8.4698957600676578
 21
277.57718813547717
  0
LINE
  8
_0-0_0
  6
CONTINUOUS
 62
    7
 10
-6.8182226601609841
 20
279.22886123538398
 11
-6.2499443541724133
 21
279.79713954137247
  0
LINE
  8
_0-0_0
  6
CONTINUOUS
 62
    7
 10
-9.5466464053944264
 20
276.50043749015048
 11
-9.3797180260336006
 21
276.66736586951128
  0
LINE
  8
_0-0_0
  6
CONTINUOUS
 62
    7
 10
-8.2044794288843263
 20
278.01938116195719
 11
-7.6295366383252201
 21
278.59432395251627
  0
LINE
  8
_0-0_0
  6
CONTINUOUS
 62
    7
 10
-8.7349511272770428
 20
277.48890946356448
 11
-8.5935158267086535
 21
277.63034476413287
  0
LINE
  8
_0-0_0
  6
CONTINUOUS
 62
    7
 10
-7.0693267716177672
 20
279.15453381922378
 11
-6.241105519407597
 21
279.98275507143387
  0
LINE
  8
_0-0_0
  6
CONTINUOUS
 62
    7
 10
-9.6710222542689621
 20
276.55283833657256
 11
-9.500402116091891
 21
276.72345847474969
  0
LINE
  8
_0-0_0
  6
CONTINUOUS
 62
    7
 10
-8.3047915498018483
 20
278.09584573633628
 11
-7.6836519532119496
 21
278.71698533292618
  0
LINE
  8
_0-0_0
  6
CONTINUOUS
 62
    7
 10
-8.8586948139846981
 20
277.54194247215349
 11
-8.7171358933496776
 21
277.68350139278851
  0
LINE
  8
_0-0_0
  6
CONTINUOUS
 62
    7
 10
-7.2495696766260948
 20
279.15106760951209
 11
-6.278002757551917
 21
280.12263452858627
  0
LINE
  8
_0-0_0
  6
CONTINUOUS
 62
    7
 10
-9.79340612024356
 20
276.60723116589457
 11
-9.6210862061501813
 21
276.77955107998798
  0
LINE
  8
_0-0_0
  6
CONTINUOUS
 62
    7
 10
-8.3671833246124265
 20
278.21023065682237
 11
-7.7282388777471737
 21
278.84917510368768
  0
LINE
  8
_0-0_0
  6
CONTINUOUS
 62
    7
 10
-8.982438500692325
 20
277.5949754807425
 11
-8.8407559599906733
 21
277.73665802144421
  0
LINE
  8
_0-0_0
  6
CONTINUOUS
 62
    7
 10
-7.4298125816344224
 20
279.1476013998004
 11
-6.3285103847795198
 21
280.24890359665528
  0
LINE
  8
_0-0_0
  6
CONTINUOUS
 62
    7
 10
-9.9157899862181579
 20
276.66162399521658
 11
-9.743101101558409
 21
276.83431287987639
  0
LINE
  8
_0-0_0
  6
CONTINUOUS
 62
    7
 10
-8.428947455302989
 20
278.32524322142847
 11
-7.7512967075684855
 21
279.00289396916298
  0
LINE
  8
_0-0_0
  6
CONTINUOUS
 62
    7
 10
-9.1061821873999804
 20
277.64800848933145
 11
-8.9643760266316689
 21
277.78981465009968
  0
LINE
  8
_0-0_0
  6
CONTINUOUS
 62
    7
 10
-7.6100554866427501
 20
279.14413519008866
 11
-6.3790180120071227
 21
280.37517266472428
  0
LINE
  8
_0-0_0
  6
CONTINUOUS
 62
    7
 10
-10.042855056358234
 20
276.71133562037317
 11
-9.8714458255408885
 21
276.88274485119057
  0
LINE
  8
_0-0_0
  6
CONTINUOUS
 62
    7
 10
-9.2299258741076073
 20
277.70104149792047
 11
-9.087996093272693
 21
277.84297127875538
  0
LINE
  8
_0-0_0
  6
CONTINUOUS
 62
    7
 10
-8.4765894015531557
 20
278.45437797047486
 11
-6.4574168650497085
 21
280.47355050697836
  0
LINE
  8
_0-0_0
  6
CONTINUOUS
 62
    7
 10
-10.173382034862129
 20
276.757585337166
 11
-9.999790549523368
 21
276.93117682250471
  0
LINE
  8
_0-0_0
  6
CONTINUOUS
 62
    7
 10
-9.3536695608152626
 20
277.75407450650948
 11
-9.2116161599136887
 21
277.89612790741108
  0
LINE
  8
_0-0_0
  6
CONTINUOUS
 62
    7
 10
-8.5242313478033224
 20
278.58351271952136
 11
-6.536501176103485
 21
280.57124289122117
  0
LINE
  8
_0-0_0
  6
CONTINUOUS
 62
    7
 10
-10.303909013366023
 20
276.80383505395866
 11
-10.128135273505876
 21
276.97960879381878
  0
LINE
  8
_0-0_0
  6
CONTINUOUS
 62
    7
 10
-9.477413247522918
 20
277.80710751509849
 11
-9.3352362265546844
 21
277.94928453606667
  0
LINE
  8
_0-0_0
  6
CONTINUOUS
 62
    7
 10
-8.5718732940534607
 20
278.71264746856786
 11
-6.625121006044452
 21
280.65939975657687
  0
LINE
  8
_0-0_0
  6
CONTINUOUS
 62
    7
 10
-10.434435991869975
 20
276.85008477075137
 11
-10.256479997488355
 21
277.02804076513297
  0
LINE
  8
_0-0_0
  6
CONTINUOUS
 62
    7
 10
-9.6011569342305733
 20
277.8601405236875
 11
-9.4588562931957085
 21
278.00244116472231
  0
LINE
  8
_0-0_0
  6
CONTINUOUS
 62
    7
 10
-8.6195152403036274
 20
278.84178221761436
 11
-6.7255127095462512
 21
280.73578474837177
  0
LINE
  8
_0-0_0
  6
CONTINUOUS
 62
    7
 10
-10.564962970373869
 20
276.8963344875442
 11
-10.382486152246144
 21
277.07881130567187
  0
LINE
  8
_0-0_0
  6
CONTINUOUS
 62
    7
 10
-8.6671571865537941
 20
278.97091696666086
 11
-7.7909371115931662
 21
279.84713704162146
  0
LINE
  8
_0-0_0
  6
CONTINUOUS
 62
    7
 10
-9.7249006209382002
 20
277.91317353227645
 11
-9.5852480204867447
 21
278.05282613272788
  0
LINE
  8
_0-0_0
  6
CONTINUOUS
 62
    7
 10
-7.5496625688459459
 20
280.08841158436871
 11
-6.8259044130480504
 21
280.8121697401666
  0
LINE
  8
_0-0_0
  6
CONTINUOUS
 62
    7
 10
-10.695489948877764
 20
276.94258420433686
 11
-10.504221795978594
 21
277.13385235723598
  0
LINE
  8
_0-0_0
  6
CONTINUOUS
 62
    7
 10
-8.7147991328039324
 20
279.1000517157073
 11
-7.9824451981645552
 21
279.8324056503468
  0
LINE
  8
_0-0_0
  6
CONTINUOUS
 62
    7
 10
-9.8486443076458556
 20
277.96620654086541
 11
-9.7124031872790794
 21
278.10244766123219
  0
LINE
  8
_0-0_0
  6
CONTINUOUS
 62
    7
 10
-7.5252269947526428
 20
280.28962385375859
 11
-6.9262961165498211
 21
280.88855473196139
  0
LINE
  8
_0-0_0
  6
CONTINUOUS
 62
    7
 10
-10.826016927381715
 20
276.98883392112958
 11
-10.640203869283709
 21
277.17464697922747
  0
LINE
  8
_0-0_0
  6
CONTINUOUS
 62
    7
 10
-8.7624410790540991
 20
279.2291864647538
 11
-8.1487011001034659
 21
279.84292644370447
  0
LINE
  8
_0-0_0
  6
CONTINUOUS
 62
    7
 10
-9.9752348743639913
 20
278.01639266944386
 11
-9.8395583540714142
 21
278.15206918973649
  0
LINE
  8
_0-0_0
  6
CONTINUOUS
 62
    7
 10
-7.5409633204428132
 20
280.45066422336509
 11
-7.0266878200516202
 21
280.96493972375628
  0
LINE
  8
_0-0_0
  6
CONTINUOUS
 62
    7
 10
-10.95654390588561
 20
277.03508363792229
 11
-10.775610492390171
 21
277.21601705141779
  0
LINE
  8
_0-0_0
  6
CONTINUOUS
 62
    7
 10
-8.8100830253042659
 20
279.3583212138003
 11
-8.2918060439150167
 21
279.8765981951895
  0
LINE
  8
_0-0_0
  6
CONTINUOUS
 62
    7
 10
-10.107817395836491
 20
278.06058684326808
 11
-9.9667135208637205
 21
278.20169071824091
  0
LINE
  8
_0-0_0
  6
CONTINUOUS
 62
    7
 10
-7.6072416059306533
 20
280.56116263317386
 11
-7.1286528879580259
 21
281.03975135114649
  0
LINE
  8
_0-0_0
  6
CONTINUOUS
 62
    7
 10
-11.087070884389504
 20
277.08133335471501
 11
-10.909805939914633
 21
277.25859829918988
  0
LINE
  8
_0-0_0
  6
CONTINUOUS
 62
    7
 10
-8.8577249715544041
 20
279.48745596284669
 11
-8.4349109877265959
 21
279.91026994667458
  0
LINE
  8
_0-0_0
  6
CONTINUOUS
 62
    7
 10
-10.240399917308934
 20
278.1047810170923
 11
-10.099248838301662
 21
278.24593209609946
  0
LINE
  8
_0-0_0
  6
CONTINUOUS
 62
    7
 10
-7.6932410793181986
 20
280.65193985508301
 11
-7.2562457446439054
 21
281.0889351897573
  0
LINE
  8
_0-0_0
  6
CONTINUOUS
 62
    7
 10
-11.217597862893427
 20
277.12758307150778
 11
-11.044001387439095
 21
277.30117954696208
  0
LINE
  8
_0-0_0
  6
CONTINUOUS
 62
    7
 10
-8.9322806263563165
 20
279.58967700334147
 11
-8.5661957752787714
 21
279.95576185441899
  0
LINE
  8
_0-0_0
  6
CONTINUOUS
 62
    7
 10
-10.373250246325937
 20
278.14870738337191
 11
-10.231831359774162
 21
278.29012626992368
  0
LINE
  8
_0-0_0
  6
CONTINUOUS
 62
    7
 10
-7.7821618187024057
 20
280.73979581099536
 11
-7.3838386013297849
 21
281.138119028368
  0
LINE
  8
_0-0_0
  6
CONTINUOUS
 62
    7
 10
-11.348124841397321
 20
277.1738327883005
 11
-11.178196834963529
 21
277.34376079473429
  0
LINE
  8
_0-0_0
  6
CONTINUOUS
 62
    7
 10
-10.506238218934413
 20
278.1924961060601
 11
-10.359842190075653
 21
278.3388921349188
  0
LINE
  8
_0-0_0
  6
CONTINUOUS
 62
    7
 10
-9.0206689740046215
 20
279.67806535098981
 11
-8.6930431749572676
 21
280.00569115003719
  0
LINE
  8
_0-0_0
  6
CONTINUOUS
 62
    7
 10
-11.479827218669186
 20
277.21890710632527
 11
-11.312392282487991
 21
277.38634204250638
  0
LINE
  8
_0-0_0
  6
CONTINUOUS
 62
    7
 10
-7.8909474773464864
 20
280.80778684764788
 11
-7.5114314580156644
 21
281.18730286697876
  0
LINE
  8
_0-0_0
  6
CONTINUOUS
 62
    7
 10
-14.717147888557406
 20
273.98158643643711
 11
-14.543466921777792
 21
274.15526740321666
  0
LINE
  8
_0-0_0
  6
CONTINUOUS
 62
    7
 10
-10.639226191542917
 20
278.23628482874818
 11
-10.488014907312674
 21
278.38749611297839
  0
LINE
  8
_0-0_0
  6
CONTINUOUS
 62
    7
 10
-9.1476096987200889
 20
279.72790132157098
 11
-8.8198905746357922
 21
280.05562044565539
  0
LINE
  8
_0-0_0
  6
CONTINUOUS
 62
    7
 10
-11.619387767587568
 20
277.2561232527035
 11
-11.446587730012453
 21
277.4289232902787
  0
LINE
  8
_0-0_0
  6
CONTINUOUS
 62
    7
 10
-8.0064301053677127
 20
280.86908091492335
 11
-7.6390243147015439
 21
281.23648670558947
  0
LINE
  8
_0-0_0
  6
CONTINUOUS
 62
    7
 10
-14.918847928797589
 20
273.95666309149351
 11
-14.543466921777792
 21
274.33204409851327
  0
LINE
  8
_0-0_0
  6
CONTINUOUS
 62
    7
 10
-10.772214164151392
 20
278.28007355143626
 11
-10.619793898351986
 21
278.4324938172358
  0
LINE
  8
_0-0_0
  6
CONTINUOUS
 62
    7
 10
-9.2774300843285573
 20
279.77485763125918
 11
-8.9467379743142885
 21
280.10554974127336
  0
LINE
  8
_0-0_0
  6
CONTINUOUS
 62
    7
 10
-11.758948316505978
 20
277.29333939908167
 11
-11.580783177536886
 21
277.4715045380509
  0
LINE
  8
_0-0_0
  6
CONTINUOUS
 62
    7
 10
-8.1320345993942737
 20
280.92025311619346
 11
-7.7666171713874234
 21
281.28567054420028
  0
LINE
  8
_0-0_0
  6
CONTINUOUS
 62
    7
 10
-15.091415655158584
 20
273.96087206042921
 11
-14.543466921777792
 21
274.50882079380988
  0
LINE
  8
_0-0_0
  6
CONTINUOUS
 62
    7
 10
-10.905202136759868
 20
278.3238622741245
 11
-10.751572889391297
 21
278.47749152149299
  0
LINE
  8
_0-0_0
  6
CONTINUOUS
 62
    7
 10
-9.4072504699370256
 20
279.82181394094726
 11
-9.0735853739927847
 21
280.15547903689156
  0
LINE
  8
_0-0_0
  6
CONTINUOUS
 62
    7
 10
-11.898508865424389
 20
277.33055554546007
 11
-11.714978625061348
 21
277.51408578582299
  0
LINE
  8
_0-0_0
  6
CONTINUOUS
 62
    7
 10
-8.2576390934208347
 20
280.97142531746357
 11
-7.8942100280733029
 21
281.3348543828111
  0
LINE
  8
_0-0_0
  6
CONTINUOUS
 62
    7
 10
-15.26398338151958
 20
273.96508102936479
 11
-14.543466921777792
 21
274.68559748910661
  0
LINE
  8
_0-0_0
  6
CONTINUOUS
 62
    7
 10
-11.038190109368343
 20
278.36765099681258
 11
-10.883351880430609
 21
278.5224892257504
  0
LINE
  8
_0-0_0
  6
CONTINUOUS
 62
    7
 10
-9.5370708555454939
 20
279.86877025063546
 11
-9.2004327736712809
 21
280.2054083325097
  0
LINE
  8
_0-0_0
  6
CONTINUOUS
 62
    7
 10
-12.038285894823758
 20
277.36755521135717
 11
-11.84917407258581
 21
277.5566670335952
  0
LINE
  8
_0-0_0
  6
CONTINUOUS
 62
    7
 10
-8.3832435874473958
 20
281.02259751873356
 11
-8.0218028847591824
 21
281.3840382214218
  0
LINE
  8
_0-0_0
  6
CONTINUOUS
 62
    7
 10
-15.436551107880575
 20
273.96928999830049
 11
-14.543466921777792
 21
274.86237418440327
  0
LINE
  8
_0-0_0
  6
CONTINUOUS
 62
    7
 10
-11.171178081976819
 20
278.41143971950077
 11
-11.015130871469921
 21
278.5674869300077
  0
LINE
  8
_0-0_0
  6
CONTINUOUS
 62
    7
 10
-9.660012708411358
 20
279.92260509306629
 11
-9.3272801733497772
 21
280.25533762812779
  0
LINE
  8
_0-0_0
  6
CONTINUOUS
 62
    7
 10
-12.178488101438347
 20
277.40412970003927
 11
-11.986074672655291
 21
277.59654312882236
  0
LINE
  8
_0-0_0
  6
CONTINUOUS
 62
    7
 10
-8.5088480814739568
 20
281.07376972000378
 11
-8.1493957414450619
 21
281.43322206003256
  0
LINE
  8
_0-0_0
  6
CONTINUOUS
 62
    7
 10
-15.609118834241598
 20
273.97349896723608
 11
-14.543466921777792
 21
275.03915087969988
  0
LINE
  8
_0-0_0
  6
CONTINUOUS
 62
    7
 10
-11.306659375500572
 20
278.45273512127369
 11
-11.146909862509232
 21
278.61248463426505
  0
LINE
  8
_0-0_0
  6
CONTINUOUS
 62
    7
 10
-9.7795969434649805
 20
279.97979755330931
 11
-9.4541275730283018
 21
280.30526692374598
  0
LINE
  8
_0-0_0
  6
CONTINUOUS
 62
    7
 10
-12.318690308052907
 20
277.44070418872138
 11
-12.133388585402485
 21
277.6260059113718
  0
LINE
  8
_0-0_0
  6
CONTINUOUS
 62
    7
 10
-8.6344525755004895
 20
281.12494192127377
 11
-8.2769885981309414
 21
281.48240589864337
  0
LINE
  8
_0-0_0
  6
CONTINUOUS
 62
    7
 10
-15.781686560602594
 20
273.97770793617166
 11
-14.543466921777792
 21
275.21592757499649
  0
LINE
  8
_0-0_0
  6
CONTINUOUS
 62
    7
 10
-10.87537983012487
 20
279.06079136194597
 11
-10.647347118469895
 21
279.288824073601
  0
LINE
  8
_0-0_0
  6
CONTINUOUS
 62
    7
 10
-11.445762348848745
 20
278.49040884322221
 11
-11.278688853548544
 21
278.65748233852241
  0
LINE
  8
_0-0_0
  6
CONTINUOUS
 62
    7
 10
-9.9077007669938836
 20
280.02847042507698
 11
-9.5809811822377923
 21
280.3551900098331
  0
LINE
  8
_0-0_0
  6
CONTINUOUS
 62
    7
 10
-12.458892514667468
 20
277.47727867740348
 11
-12.280702498149679
 21
277.65546869392119
  0
LINE
  8
_0-0_0
  6
CONTINUOUS
 62
    7
 10
-8.7600570695270505
 20
281.17611412254387
 11
-8.4045814548168209
 21
281.53158973725408
  0
LINE
  8
_0-0_0
  6
CONTINUOUS
 62
    7
 10
-15.88758021394949
 20
274.04859097812141
 11
-14.543466921777792
 21
275.3927042702931
  0
LINE
  8
_0-0_0
  6
CONTINUOUS
 62
    7
 10
-11.016324053401177
 20
279.09662383396636
 11
-10.518164148830067
 21
279.5947837385375
  0
LINE
  8
_0-0_0
  6
CONTINUOUS
 62
    7
 10
-11.584865322196918
 20
278.52808256517056
 11
-11.410467844587856
 21
278.70248004277971
  0
LINE
  8
_0-0_0
  6
CONTINUOUS
 62
    7
 10
-10.048082260317698
 20
280.06486562704986
 11
-9.7084248462888638
 21
280.40452304107867
  0
LINE
  8
_0-0_0
  6
CONTINUOUS
 62
    7
 10
-12.601882386419816
 20
277.51106550094766
 11
-12.428016410896873
 21
277.68493147647058
  0
LINE
  8
_0-0_0
  6
CONTINUOUS
 62
    7
 10
-8.8856615635536115
 20
281.22728632381387
 11
-8.5321743115027004
 21
281.58077357586478
  0
LINE
  8
_0-0_0
  6
CONTINUOUS
 62
    7
 10
-15.91253522557568
 20
274.20041266179185
 11
-14.543466921777792
 21
275.56948096558966
  0
LINE
  8
_0-0_0
  6
CONTINUOUS
 62
    7
 10
-11.148906574873649
 20
279.14081800779047
 11
-10.36122738177562
 21
279.92849720088861
  0
LINE
  8
_0-0_0
  6
CONTINUOUS
 62
    7
 10
-11.723968295545091
 20
278.56575628711908
 11
-11.555012586419792
 21
278.73471199624441
  0
LINE
  8
_0-0_0
  6
CONTINUOUS
 62
    7
 10
-10.20359099629033
 20
280.08613358637376
 11
-9.8358685103399352
 21
280.45385607232429
  0
LINE
  8
_0-0_0
  6
CONTINUOUS
 62
    7
 10
-12.747915308621372
 20
277.5418092740428
 11
-12.575330323644095
 21
277.71439425902008
  0
LINE
  8
_0-0_0
  6
CONTINUOUS
 62
    7
 10
-9.0111440985524779
 20
281.27858048411167
 11
-8.6597671681885799
 21
281.62995741447559
  0
LINE
  8
_0-0_0
  6
CONTINUOUS
 62
    7
 10
-15.919334329240939
 20
274.37039025342329
 11
-14.543466921777792
 21
275.74625766088638
  0
LINE
  8
_0-0_0
  6
CONTINUOUS
 62
    7
 10
-11.867403876743537
 20
278.5990974012173
 11
-11.701310541148046
 21
278.76519073681276
  0
LINE
  8
_0-0_0
  6
CONTINUOUS
 62
    7
 10
-11.281489096346149
 20
279.18501218161469
 11
-9.9551564861169765
 21
280.51134479184389
  0
LINE
  8
_0-0_0
  6
CONTINUOUS
 62
    7
 10
-12.883665012757035
 20
277.5828362652038
 11
-12.722644236391289
 21
277.74385704156946
  0
LINE
  8
_0-0_0
  6
CONTINUOUS
 62
    7
 10
-9.136598527472671
 20
281.32990275048808
 11
-8.7873600248744594
 21
281.67914125308641
  0
LINE
  8
_0-0_0
  6
CONTINUOUS
 62
    7
 10
-15.926133432906226
 20
274.54036784505456
 11
-14.543466921777792
 21
275.92303435618299
  0
LINE
  8
_0-0_0
  6
CONTINUOUS
 62
    7
 10
-12.018926758426374
 20
278.6243512148311
 11
-11.836031350529509
 21
278.80724662272797
  0
LINE
  8
_0-0_0
  6
CONTINUOUS
 62
    7
 10
-11.414071617818592
 20
279.22920635543886
 11
-10.025993923807277
 21
280.61728404945017
  0
LINE
  8
_0-0_0
  6
CONTINUOUS
 62
    7
 10
-13.03409916589922
 20
277.60917880735826
 11
-12.869958149138483
 21
277.77331982411897
  0
LINE
  8
_0-0_0
  6
CONTINUOUS
 62
    7
 10
-9.2620529563928641
 20
281.38122501686456
 11
-8.9149528815603389
 21
281.72832509169705
  0
LINE
  8
_0-0_0
  6
CONTINUOUS
 62
    7
 10
-15.932066576459305
 20
274.7112113967982
 11
-14.543466921777792
 21
276.09981105147966
  0
LINE
  8
_0-0_0
  6
CONTINUOUS
 62
    7
 10
-12.152427520030698
 20
278.66762714852347
 11
-11.970508534861153
 21
278.84954613369296
  0
LINE
  8
_0-0_0
  6
CONTINUOUS
 62
    7
 10
-11.545771590485031
 20
279.27428307806906
 11
-9.9888604123387381
 21
280.83119425621526
  0
LINE
  8
_0-0_0
  6
CONTINUOUS
 62
    7
 10
-13.187960363657396
 20
277.63209430489666
 11
-13.017272061885677
 21
277.80278260666835
  0
LINE
  8
_0-0_0
  6
CONTINUOUS
 62
    7
 10
-9.3875073853130857
 20
281.43254728324097
 11
-9.0425457382462184
 21
281.77750893030787
  0
LINE
  8
_0-0_0
  6
CONTINUOUS
 62
    7
 10
-15.934887481171472
 20
274.8851671873827
 11
-14.544171623868578
 21
276.27588304468548
  0
LINE
  8
_0-0_0
  6
CONTINUOUS
 62
    7
 10
-12.290751798242439
 20
278.70607956560826
 11
-12.123179317162794
 21
278.87365204668788
  0
LINE
  8
_0-0_0
  6
CONTINUOUS
 62
    7
 10
-11.634159938133365
 20
279.36267142571739
 11
-9.8644619971300073
 21
281.1323693667208
  0
LINE
  8
_0-0_0
  6
CONTINUOUS
 62
    7
 10
-13.341821561415599
 20
277.65500980243507
 11
-13.16676129749473
 21
277.83007006635597
  0
LINE
  8
_0-0_0
  6
CONTINUOUS
 62
    7
 10
-9.5360848546046668
 20
281.46074650924606
 11
-9.1701385949320979
 21
281.82669276891869
  0
LINE
  8
_0-0_0
  6
CONTINUOUS
 62
    7
 10
-15.937708385883667
 20
275.05912297796709
 11
-14.544967915288822
 21
276.45186344856199
  0
LINE
  8
_0-0_0
  6
CONTINUOUS
 62
    7
 10
-12.432584263073465
 20
278.74102379607387
 11
-12.263768647684088
 21
278.90983941146328
  0
LINE
  8
_0-0_0
  6
CONTINUOUS
 62
    7
 10
-13.493279705906132
 20
277.68032835324129
 11
-13.323896137758424
 21
277.84971192138897
  0
LINE
  8
_0-0_0
  6
CONTINUOUS
 62
    7
 10
-11.554573360005861
 20
279.61903469914159
 11
-9.2997134396751732
 21
281.87389461947219
  0
LINE
  8
_0-0_0
  6
CONTINUOUS
 62
    7
 10
-15.940529290595833
 20
275.23307876855147
 11
-14.545764206709066
 21
276.62784385243827
  0
LINE
  8
_0-0_0
  6
CONTINUOUS
 62
    7
 10
-12.574416727904491
 20
278.7759680265396
 11
-12.3947143479038
 21
278.9556704065402
  0
LINE
  8
_0-0_0
  6
CONTINUOUS
 62
    7
 10
-13.636384649717683
 20
277.71400010472626
 11
-13.48103097802209
 21
277.86935377642186
  0
LINE
  8
_0-0_0
  6
CONTINUOUS
 62
    7
 10
-11.440523879169319
 20
279.90986087527465
 11
-9.4308703426372062
 21
281.9195144118068
  0
LINE
  8
_0-0_0
  6
CONTINUOUS
 62
    7
 10
-15.943350195308028
 20
275.40703455913597
 11
-14.546560498129338
 21
276.80382425631466
  0
LINE
  8
_0-0_0
  6
CONTINUOUS
 62
    7
 10
-12.716249192735517
 20
278.81091225700521
 11
-12.537670229129446
 21
278.98949122061128
  0
LINE
  8
_0-0_0
  6
CONTINUOUS
 62
    7
 10
-13.79562272553332
 20
277.73153872420738
 11
-13.638165818285784
 21
277.88899563145486
  0
LINE
  8
_0-0_0
  6
CONTINUOUS
 62
    7
 10
-11.324419736043722
 20
280.20274171369698
 11
-9.5554623211307614
 21
281.97169912860988
  0
LINE
  8
_0-0_0
  6
CONTINUOUS
 62
    7
 10
-15.946171100020194
 20
275.58099034972036
 11
-14.547356789549581
 21
276.97980466019106
  0
LINE
  8
_0-0_0
  6
CONTINUOUS
 62
    7
 10
-12.858081657566543
 20
278.84585648747076
 11
-12.684428240319107
 21
279.01950990471817
  0
LINE
  8
_0-0_0
  6
CONTINUOUS
 62
    7
 10
-13.95289162509357
 20
277.75104651994371
 11
-13.764919055221639
 21
277.93901908981558
  0
LINE
  8
_0-0_0
  6
CONTINUOUS
 62
    7
 10
-11.204667781165369
 20
280.49927036387185
 11
-9.6750557775812353
 21
282.0288823674561
  0
LINE
  8
_0-0_0
  6
CONTINUOUS
 62
    7
 10
-15.94899200473236
 20
275.75494614030486
 11
-14.548153080969825
 21
277.15578506406745
  0
LINE
  8
_0-0_0
  6
CONTINUOUS
 62
    7
 10
-12.999914122397569
 20
278.88080071793638
 11
-12.831186251508768
 21
279.04952858882518
  0
LINE
  8
_0-0_0
  6
CONTINUOUS
 62
    7
 10
-14.074420032571339
 20
277.80629480776258
 11
-13.851386760664979
 21
278.02932807966891
  0
LINE
  8
_0-0_0
  6
CONTINUOUS
 62
    7
 10
-11.081584637985599
 20
280.7991302023484
 11
-9.7987994642888622
 21
282.08191537604506
  0
LINE
  8
_0-0_0
  6
CONTINUOUS
 62
    7
 10
-15.951812909444555
 20
275.92890193088936
 11
-14.548949372390097
 21
277.33176546794379
  0
LINE
  8
_0-0_0
  6
CONTINUOUS
 62
    7
 10
-13.173139022443621
 20
278.88435251318691
 11
-12.975132133591387
 21
279.08235940203917
  0
LINE
  8
_0-0_0
  6
CONTINUOUS
 62
    7
 10
-12.510855842381772
 20
279.54663569324878
 11
-12.401674498553177
 21
279.65581703707738
  0
LINE
  8
_0-0_0
  6
CONTINUOUS
 62
    7
 10
-14.11933695324717
 20
277.93815458238339
 11
-13.895310656319963
 21
278.16218087931059
  0
LINE
  8
_0-0_0
  6
CONTINUOUS
 62
    7
 10
-10.950638937765859
 20
281.1068525978647
 11
-9.9258207283704678
 21
282.13167080726009
  0
LINE
  8
_0-0_0
  6
CONTINUOUS
 62
    7
 10
-15.95463381415675
 20
276.10285772147381
 11
-14.549745663810369
 21
277.50774587182019
  0
LINE
  8
_0-0_0
  6
CONTINUOUS
 62
    7
 10
-13.334428594618657
 20
278.89983963630851
 11
-13.109819139531651
 21
279.1244490913956
  0
LINE
  8
_0-0_0
  6
CONTINUOUS
 62
    7
 10
-14.117772557713578
 20
278.11649567321359
 11
-13.892504677029535
 21
278.34176355389757
  0
LINE
  8
_0-0_0
  6
CONTINUOUS
 62
    7
 10
-12.666132669331545
 20
279.56813556159568
 11
-12.371655814446199
 21
279.86261241648099
  0
LINE
  8
_0-0_0
  6
CONTINUOUS
 62
    7
 10
-15.957454718868916
 20
276.27681351205831
 11
-14.550541955230613
 21
277.68372627569658
  0
LINE
  8
_0-0_0
  6
CONTINUOUS
 62
    7
 10
-10.836434645397844
 20
281.39783358552926
 11
-10.060507734310732
 21
282.17376049661646
  0
LINE
  8
_0-0_0
  6
CONTINUOUS
 62
    7
 10
-18.236664526688201
 20
273.99760370423899
 11
-18.119294256629075
 21
274.11497397429809
  0
LINE
  8
_0-0_0
  6
CONTINUOUS
 62
    7
 10
-13.46911560055895
 20
278.94192932566488
 11
-13.262501060463762
 21
279.14854386576007
  0
LINE
  8
_0-0_0
  6
CONTINUOUS
 62
    7
 10
-14.116208162179987
 20
278.2948367640439
 11
-13.889698697739106
 21
278.52134622848467
  0
LINE
  8
_0-0_0
  6
CONTINUOUS
 62
    7
 10
-12.82140949628129
 20
279.58963542994246
 11
-12.341637130339222
 21
280.06940779588455
  0
LINE
  8
_0-0_0
  6
CONTINUOUS
 62
    7
 10
-15.960275623581082
 20
276.45076930264281
 11
-14.551338246650857
 21
277.85970667957298
  0
LINE
  8
_0-0_0
  6
CONTINUOUS
 62
    7
 10
-10.738902675579026
 20
281.67214225064481
 11
-10.184095087588957
 21
282.22694983863488
  0
LINE
  8
_0-0_0
  6
CONTINUOUS
 62
    7
 10
-18.427774467549426
 20
273.98327045867438
 11
-18.119294256629075
 21
274.29175066959476
  0
LINE
  8
_0-0_0
  6
CONTINUOUS
 62
    7
 10
-13.631946164714463
 20
278.95587545680598
 11
-13.418722326074771
 21
279.16909929544578
  0
LINE
  8
_0-0_0
  6
CONTINUOUS
 62
    7
 10
-14.114643766646395
 20
278.4731778548741
 11
-13.886892718448677
 21
278.70092890307176
  0
LINE
  8
_0-0_0
  6
CONTINUOUS
 62
    7
 10
-12.976686323231035
 20
279.61113529828941
 11
-12.311618446232245
 21
280.27620317528817
  0
LINE
  8
_0-0_0
  6
CONTINUOUS
 62
    7
 10
-15.963096528293277
 20
276.62472509322719
 11
-14.552134538071129
 21
278.03568708344937
  0
LINE
  8
_0-0_0
  6
CONTINUOUS
 62
    7
 10
-10.61904731615013
 20
281.9687743053704
 11
-10.310770905419644
 21
282.2770507161008
  0
LINE
  8
_0-0_0
  6
CONTINUOUS
 62
    7
 10
-18.61888440841065
 20
273.96893721310976
 11
-18.119294256629075
 21
274.46852736489137
  0
LINE
  8
_0-0_0
  6
CONTINUOUS
 62
    7
 10
-14.113079371112803
 20
278.65151894570431
 11
-13.574943591685723
 21
279.18965472513139
  0
LINE
  8
_0-0_0
  6
CONTINUOUS
 62
    7
 10
-13.13196315018078
 20
279.6326351666363
 11
-12.260978392955337
 21
280.50361992386177
  0
LINE
  8
_0-0_0
  6
CONTINUOUS
 62
    7
 10
-15.965917433005472
 20
276.79868088381158
 11
-14.552930829491373
 21
278.21166748732571
  0
LINE
  8
_0-0_0
  6
CONTINUOUS
 62
    7
 10
-10.468622344654193
 20
282.29597597216286
 11
-10.458084818166867
 21
282.30651349865019
  0
LINE
  8
_0-0_0
  6
CONTINUOUS
 62
    7
 10
-18.791485624358898
 20
273.97311269245818
 11
-18.119294256629075
 21
274.64530406018809
  0
LINE
  8
_0-0_0
  6
CONTINUOUS
 62
    7
 10
-14.111514975579183
 20
278.82986003653456
 11
-13.735883106631774
 21
279.20549190548189
  0
LINE
  8
_0-0_0
  6
CONTINUOUS
 62
    7
 10
-15.966740301767941
 20
276.97463471034581
 11
-14.553727120911617
 21
278.3876478912021
  0
LINE
  8
_0-0_0
  6
CONTINUOUS
 62
    7
 10
-13.281172016560248
 20
279.6602029955535
 11
-12.210961340253277
 21
280.7304136718605
  0
LINE
  8
_0-0_0
  6
CONTINUOUS
 62
    7
 10
-18.962166571541843
 20
273.97920844057188
 11
-18.119294256629075
 21
274.8220807554847
  0
LINE
  8
_0-0_0
  6
CONTINUOUS
 62
    7
 10
-14.109950580045591
 20
279.00820112736477
 11
-13.896946317902063
 21
279.22120538950827
  0
LINE
  8
_0-0_0
  6
CONTINUOUS
 62
    7
 10
-15.967092399555156
 20
277.15105930785517
 11
-14.554523412331889
 21
278.5636282950785
  0
LINE
  8
_0-0_0
  6
CONTINUOUS
 62
    7
 10
-13.411428528884073
 20
279.70672317852626
 11
-12.167300389512547
 21
280.95085131789778
  0
LINE
  8
_0-0_0
  6
CONTINUOUS
 62
    7
 10
-19.046746678231272
 20
274.07140502917906
 11
-18.119294256629075
 21
274.99885745078125
  0
LINE
  8
_0-0_0
  6
CONTINUOUS
 62
    7
 10
-14.108386184511999
 20
279.18654221819508
 11
-14.058009529172352
 21
279.2369188735347
  0
LINE
  8
_0-0_0
  6
CONTINUOUS
 62
    7
 10
-15.974949141568345
 20
277.31997926113871
 11
-14.555229511695074
 21
278.73969889101198
  0
LINE
  8
_0-0_0
  6
CONTINUOUS
 62
    7
 10
-13.440074701848629
 20
279.85485370085837
 11
-12.129078401340279
 21
281.16585000136666
  0
LINE
  8
_0-0_0
  6
CONTINUOUS
 62
    7
 10
-19.049544303730897
 20
274.24538409897616
 11
-18.119294256629075
 21
275.17563414607786
  0
LINE
  8
_0-0_0
  6
CONTINUOUS
 62
    7
 10
-15.982805883581534
 20
277.48889921442219
 11
-14.555229511695074
 21
278.91647558630859
  0
LINE
  8
_0-0_0
  6
CONTINUOUS
 62
    7
 10
-13.398642663888495
 20
280.07306243411517
 11
-12.09085641316804
 21
281.38084868483559
  0
LINE
  8
_0-0_0
  6
CONTINUOUS
 62
    7
 10
-19.050572075215143
 20
274.42113302278846
 11
-18.119294256629075
 21
275.35241084137459
  0
LINE
  8
_0-0_0
  6
CONTINUOUS
 62
    7
 10
-15.993244061544032
 20
277.65523773175618
 11
-14.555229511695074
 21
279.0932522816052
  0
LINE
  8
_0-0_0
  6
CONTINUOUS
 62
    7
 10
-13.35721062592836
 20
280.29127116737186
 11
-12.041825558585316
 21
281.60665623471498
  0
LINE
  8
_0-0_0
  6
CONTINUOUS
 62
    7
 10
-19.051599846699446
 20
274.59688194660088
 11
-18.119294256629075
 21
275.5291875366712
  0
LINE
  8
_0-0_0
  6
CONTINUOUS
 62
    7
 10
-16.054874422665193
 20
277.77038406593169
 11
-14.555229511695074
 21
279.27002897690186
  0
LINE
  8
_0-0_0
  6
CONTINUOUS
 62
    7
 10
-13.315778587968196
 20
280.50947990062866
 11
-12.003603570413076
 21
281.82165491818386
  0
LINE
  8
_0-0_0
  6
CONTINUOUS
 62
    7
 10
-19.05262761818372
 20
274.77263087041319
 11
-18.119294256629075
 21
275.70596423196786
  0
LINE
  8
_0-0_0
  6
CONTINUOUS
 62
    7
 10
-16.16535985722561
 20
277.836675326668
 11
-14.555229511695074
 21
279.44680567219847
  0
LINE
  8
_0-0_0
  6
CONTINUOUS
 62
    7
 10
-13.273948372957505
 20
280.72808681093607
 11
-11.961545001956551
 21
282.040490181937
  0
LINE
  8
_0-0_0
  6
CONTINUOUS
 62
    7
 10
-19.053655389667994
 20
274.94837979422555
 11
-18.118687510647305
 21
275.8833476732463
  0
LINE
  8
_0-0_0
  6
CONTINUOUS
 62
    7
 10
-16.342478720866154
 20
277.836333158324
 11
-14.555229511695074
 21
279.62358236749508
  0
LINE
  8
_0-0_0
  6
CONTINUOUS
 62
    7
 10
-13.230948636263747
 20
280.94786324292647
 11
-11.868337841665862
 21
282.31047403752427
  0
LINE
  8
_0-0_0
  6
CONTINUOUS
 62
    7
 10
-19.054683161152297
 20
275.12412871803797
 11
-18.116298636386545
 21
276.06251324280367
  0
LINE
  8
_0-0_0
  6
CONTINUOUS
 62
    7
 10
-16.520418420737144
 20
277.83517015374968
 11
-14.555229511695074
 21
279.80035906279181
  0
LINE
  8
_0-0_0
  6
CONTINUOUS
 62
    7
 10
-13.18794889956996
 20
281.16763967491687
 11
-11.841821337371357
 21
282.51376723711547
  0
LINE
  8
_0-0_0
  6
CONTINUOUS
 62
    7
 10
-19.055710932636571
 20
275.29987764185028
 11
-18.113909762125757
 21
276.2416788123611
  0
LINE
  8
_0-0_0
  6
CONTINUOUS
 62
    7
 10
-16.698358120608077
 20
277.83400714917536
 11
-14.555229511695074
 21
279.97713575808836
  0
LINE
  8
_0-0_0
  6
CONTINUOUS
 62
    7
 10
-13.144663566830075
 20
281.38770170295339
 11
-11.901817470845628
 21
282.63054779893781
  0
LINE
  8
_0-0_0
  6
CONTINUOUS
 62
    7
 10
-19.056738704120846
 20
275.47562656566259
 11
-18.111520887864998
 21
276.42084438191847
  0
LINE
  8
_0-0_0
  6
CONTINUOUS
 62
    7
 10
-16.876297820479067
 20
277.83284414460109
 11
-14.556131888665078
 21
280.15301007641511
  0
LINE
  8
_0-0_0
  6
CONTINUOUS
 62
    7
 10
-13.101303245342222
 20
281.60783871973791
 11
-12.04913138359285
 21
282.66001058148731
  0
LINE
  8
_0-0_0
  6
CONTINUOUS
 62
    7
 10
-19.057766475605149
 20
275.65137548947495
 11
-18.109132013604238
 21
276.60000995147589
  0
LINE
  8
_0-0_0
  6
CONTINUOUS
 62
    7
 10
-17.05423752035
 20
277.83168114002677
 11
-14.557372426877662
 21
280.32854623349908
  0
LINE
  8
_0-0_0
  6
CONTINUOUS
 62
    7
 10
-13.057942923854369
 20
281.82797573652237
 11
-12.196445296340044
 21
282.6894733640367
  0
LINE
  8
_0-0_0
  6
CONTINUOUS
 62
    7
 10
-19.058794247089423
 20
275.82712441328726
 11
-18.108555368909264
 21
276.7773632914675
  0
LINE
  8
_0-0_0
  6
CONTINUOUS
 62
    7
 10
-17.232177220220961
 20
277.8305181354525
 11
-14.558612965090276
 21
280.5040823905831
  0
LINE
  8
_0-0_0
  6
CONTINUOUS
 62
    7
 10
-13.014582602366516
 20
282.04811275330689
 11
-12.343759209087238
 21
282.7189361465862
  0
LINE
  8
_0-0_0
  6
CONTINUOUS
 62
    7
 10
-19.059822018573697
 20
276.00287333709968
 11
-18.111656714440812
 21
276.95103864123257
  0
LINE
  8
_0-0_0
  6
CONTINUOUS
 62
    7
 10
-17.410116920091923
 20
277.82935513087807
 11
-14.559853503302889
 21
280.67961854766707
  0
LINE
  8
_0-0_0
  6
CONTINUOUS
 62
    7
 10
-12.971222280878663
 20
282.26824977009135
 11
-12.491073121834432
 21
282.74839892913558
  0
LINE
  8
_0-0_0
  6
CONTINUOUS
 62
    7
 10
-19.060819661483975
 20
276.1786523894861
 11
-18.114758059972302
 21
277.12471399099769
  0
LINE
  8
_0-0_0
  6
CONTINUOUS
 62
    7
 10
-16.055633055474231
 20
279.36061569079237
 11
-14.561094041515502
 21
280.8551547047511
  0
LINE
  8
_0-0_0
  6
CONTINUOUS
 62
    7
 10
-17.588056619962856
 20
277.8281921263038
 11
-16.102837508740549
 21
279.31341123752611
  0
LINE
  8
_0-0_0
  6
CONTINUOUS
 62
    7
 10
-12.92786195939081
 20
282.48838678687587
 11
-12.638387034581626
 21
282.77786171168509
  0
LINE
  8
_0-0_0
  6
CONTINUOUS
 62
    7
 10
-19.061790962007592
 20
276.35445778425906
 11
-18.11785940550385
 21
277.29838934076281
  0
LINE
  8
_0-0_0
  6
CONTINUOUS
 62
    7
 10
-15.990197061462481
 20
279.60282838010078
 11
-14.562334579728116
 21
281.03069086183518
  0
LINE
  8
_0-0_0
  6
CONTINUOUS
 62
    7
 10
-17.765996319833845
 20
277.82702912172948
 11
-16.32050746110633
 21
279.27251798045699
  0
LINE
  8
_0-0_0
  6
CONTINUOUS
 62
    7
 10
-12.884501637902957
 20
282.70852380366028
 11
-12.807235013740722
 21
282.78579042782257
  0
LINE
  8
_0-0_0
  6
CONTINUOUS
 62
    7
 10
-19.06276226253118
 20
276.53026317903209
 11
-18.102023314600273
 21
277.49100212696299
  0
LINE
  8
_0-0_0
  6
CONTINUOUS
 62
    7
 10
-17.943936019704779
 20
277.82586611715515
 11
-16.491521022763066
 21
279.27828111409689
  0
LINE
  8
_0-0_0
  6
CONTINUOUS
 62
    7
 10
-15.976598854131964
 20
279.79320328272797
 11
-14.5635751179407
 21
281.2062270189192
  0
LINE
  8
_0-0_0
  6
CONTINUOUS
 62
    7
 10
-19.063733563054796
 20
276.70606857380511
 11
-18.033274202135089
 21
277.7365279347249
  0
LINE
  8
_0-0_0
  6
CONTINUOUS
 62
    7
 10
-15.963000646801447
 20
279.98357818535509
 11
-14.564815656153314
 21
281.38176317600317
  0
LINE
  8
_0-0_0
  6
CONTINUOUS
 62
    7
 10
-19.064704863578413
 20
276.88187396857819
 11
-16.656106221832345
 21
279.29047261032417
  0
LINE
  8
_0-0_0
  6
CONTINUOUS
 62
    7
 10
-15.95639885971218
 20
280.16695666774108
 11
-14.566056194365927
 21
281.55729933308731
  0
LINE
  8
_0-0_0
  6
CONTINUOUS
 62
    7
 10
-19.065676164102029
 20
277.05767936335121
 11
-16.820691420901624
 21
279.30266410655156
  0
LINE
  8
_0-0_0
  6
CONTINUOUS
 62
    7
 10
-15.959865069423869
 20
280.34026715332601
 11
-14.56729673257854
 21
281.73283549017128
  0
LINE
  8
_0-0_0
  6
CONTINUOUS
 62
    7
 10
-19.066647464625617
 20
277.23348475812429
 11
-16.985276619970903
 21
279.314855602779
  0
LINE
  8
_0-0_0
  6
CONTINUOUS
 62
    7
 10
-15.963331279135559
 20
280.51357763891098
 11
-14.568537270791125
 21
281.9083716472553
  0
LINE
  8
_0-0_0
  6
CONTINUOUS
 62
    7
 10
-19.067618765149234
 20
277.40929015289731
 11
-17.157340577920422
 21
279.31956834012606
  0
LINE
  8
_0-0_0
  6
CONTINUOUS
 62
    7
 10
-15.966854675926583
 20
280.68683093741645
 11
-14.569777809003767
 21
282.08390780433938
  0
LINE
  8
_0-0_0
  6
CONTINUOUS
 62
    7
 10
-19.068590065672822
 20
277.58509554767027
 11
-17.33411727321706
 21
279.31956834012606
  0
LINE
  8
_0-0_0
  6
CONTINUOUS
 62
    7
 10
-15.97378709534999
 20
280.85667521328969
 11
-14.571018347216352
 21
282.25944396142335
  0
LINE
  8
_0-0_0
  6
CONTINUOUS
 62
    7
 10
-19.069561366196467
 20
277.76090094244329
 11
-17.510893968513698
 21
279.31956834012606
  0
LINE
  8
_0-0_0
  6
CONTINUOUS
 62
    7
 10
-15.980719514773369
 20
281.02651948916297
 11
-14.572258885428965
 21
282.43498011850738
  0
LINE
  8
_0-0_0
  6
CONTINUOUS
 62
    7
 10
-19.070532666720055
 20
277.93670633721626
 11
-17.687670663810308
 21
279.31956834012606
  0
LINE
  8
_0-0_0
  6
CONTINUOUS
 62
    7
 10
-15.987651934196776
 20
281.19636376503626
 11
-14.573499423641578
 21
282.61051627559146
  0
LINE
  8
_0-0_0
  6
CONTINUOUS
 62
    7
 10
-19.071503967243643
 20
278.11251173198928
 11
-17.864447359106975
 21
279.31956834012606
  0
LINE
  8
_0-0_0
  6
CONTINUOUS
 62
    7
 10
-15.990265481602506
 20
281.37052691292717
 11
-14.574739961854163
 21
282.78605243267548
  0
LINE
  8
_0-0_0
  6
CONTINUOUS
 62
    7
 10
-19.072064039928278
 20
278.2887283546014
 11
-18.002251328926234
 21
279.3585410656035
  0
LINE
  8
_0-0_0
  6
CONTINUOUS
 62
    7
 10
-19.072064039928278
 20
278.46550504989801
 11
-18.08628737500436
 21
279.45128171482195
  0
LINE
  8
_0-0_0
  6
CONTINUOUS
 62
    7
 10
-15.987667942311162
 20
281.54990114751507
 11
-14.575980500066805
 21
282.96158858975945
  0
LINE
  8
_0-0_0
  6
CONTINUOUS
 62
    7
 10
-19.81794265103619
 20
277.7196264387901
 11
-19.542567636619224
 21
277.99500145320706
  0
LINE
  8
_0-0_0
  6
CONTINUOUS
 62
    7
 10
-19.072064039928278
 20
278.64228174519467
 11
-18.100620620568946
 21
279.61372516455401
  0
LINE
  8
_0-0_0
  6
CONTINUOUS
 62
    7
 10
-15.983015924013869
 20
281.73132986110908
 11
-14.57722103827939
 21
283.13712474684359
  0
LINE
  8
_0-0_0
  6
CONTINUOUS
 62
    7
 10
-20.019102338787547
 20
277.69524344633538
 11
-19.539321087746372
 21
278.17502469737661
  0
LINE
  8
_0-0_0
  6
CONTINUOUS
 62
    7
 10
-19.072064039928278
 20
278.81905844049128
 11
-18.114953866133532
 21
279.77616861428606
  0
LINE
  8
_0-0_0
  6
CONTINUOUS
 62
    7
 10
-19.728335303976649
 20
278.16278717644286
 11
-19.535392716739806
 21
278.35572976367978
  0
LINE
  8
_0-0_0
  6
CONTINUOUS
 62
    7
 10
-15.978363905716605
 20
281.91275857470299
 11
-14.578461576492003
 21
283.31266090392756
  0
LINE
  8
_0-0_0
  6
CONTINUOUS
 62
    7
 10
-20.236254562240588
 20
277.65486791817897
 11
-20.027368086020373
 21
277.86375439439916
  0
LINE
  8
_0-0_0
  6
CONTINUOUS
 62
    7
 10
-19.072064039928278
 20
278.99583513578801
 11
-18.121973500379453
 21
279.9459256753368
  0
LINE
  8
_0-0_0
  6
CONTINUOUS
 62
    7
 10
-19.725615662510534
 20
278.3422835132057
 11
-19.531464345733184
 21
278.53643482998307
  0
LINE
  8
_0-0_0
  6
CONTINUOUS
 62
    7
 10
-15.973711887419312
 20
282.09418728829689
 11
-14.635007942544461
 21
283.4328912331718
  0
LINE
  8
_0-0_0
  6
CONTINUOUS
 62
    7
 10
-20.465861074522422
 20
277.60203810119378
 11
-20.243428491382928
 21
277.82447068433327
  0
LINE
  8
_0-0_0
  6
CONTINUOUS
 62
    7
 10
-19.072064039928278
 20
279.17261183108456
 11
-18.125816472016367
 21
280.1188593989965
  0
LINE
  8
_0-0_0
  6
CONTINUOUS
 62
    7
 10
-19.722896021044448
 20
278.52177984996836
 11
-19.535131759610493
 21
278.7095441114024
  0
LINE
  8
_0-0_0
  6
CONTINUOUS
 62
    7
 10
-15.969059869122048
 20
282.27561600189079
 11
-14.808201059840911
 21
283.43647481117187
  0
LINE
  8
_0-0_0
  6
CONTINUOUS
 62
    7
 10
-20.695467586804255
 20
277.54920828420858
 11
-20.442481630215127
 21
277.8021942407978
  0
LINE
  8
_0-0_0
  6
CONTINUOUS
 62
    7
 10
-19.072064039928278
 20
279.34938852638128
 11
-18.129659443653224
 21
280.29179312265625
  0
LINE
  8
_0-0_0
  6
CONTINUOUS
 62
    7
 10
-19.720176379578333
 20
278.7012761867312
 11
-19.540331074178027
 21
278.88112149213151
  0
LINE
  8
_0-0_0
  6
CONTINUOUS
 62
    7
 10
-15.966740301767941
 20
282.45471226454151
 11
-14.984977755137549
 21
283.43647481117187
  0
LINE
  8
_0-0_0
  6
CONTINUOUS
 62
    7
 10
-20.925074099086089
 20
277.49637846722339
 11
-20.636766862847537
 21
277.784685703462
  0
LINE
  8
_0-0_0
  6
CONTINUOUS
 62
    7
 10
-19.072064039928278
 20
279.52616522167789
 11
-18.131496284679997
 21
280.46673297692609
  0
LINE
  8
_0-0_0
  6
CONTINUOUS
 62
    7
 10
-19.754982761198448
 20
278.8432465004077
 11
-19.527070163958256
 21
279.07115909764786
  0
LINE
  8
_0-0_0
  6
CONTINUOUS
 62
    7
 10
-15.966740301767941
 20
282.63148895983817
 11
-15.161754450434187
 21
283.43647481117187
  0
LINE
  8
_0-0_0
  6
CONTINUOUS
 62
    7
 10
-21.154680611367922
 20
277.44354865023819
 11
-20.88797585090063
 21
277.71025341070549
  0
LINE
  8
_0-0_0
  6
CONTINUOUS
 62
    7
 10
-19.072064039928278
 20
279.7029419169745
 11
-18.132186818646005
 21
280.64281913825681
  0
LINE
  8
_0-0_0
  6
CONTINUOUS
 62
    7
 10
-19.8472557480423
 20
278.92775020886045
 11
-19.559516803230934
 21
279.21548915367191
  0
LINE
  8
_0-0_0
  6
CONTINUOUS
 62
    7
 10
-15.966740301767941
 20
282.80826565513478
 11
-15.338531145730826
 21
283.43647481117187
  0
LINE
  8
_0-0_0
  6
CONTINUOUS
 62
    7
 10
-21.384287123649784
 20
277.390718833253
 11
-21.113725242262546
 21
277.66128071464021
  0
LINE
  8
_0-0_0
  6
CONTINUOUS
 62
    7
 10
-19.072064039928278
 20
279.87971861227106
 11
-18.132877352612013
 21
280.81890529958741
  0
LINE
  8
_0-0_0
  6
CONTINUOUS
 62
    7
 10
-20.00335961115212
 20
278.9484230410473
 11
-19.719457622785029
 21
279.23232502941436
  0
LINE
  8
_0-0_0
  6
CONTINUOUS
 62
    7
 10
-15.966740301767941
 20
282.98504235043151
 11
-15.515307841027464
 21
283.43647481117187
  0
LINE
  8
_0-0_0
  6
CONTINUOUS
 62
    7
 10
-21.619518640365413
 20
277.33226401183401
 11
-21.338713763549151
 21
277.61306888865016
  0
LINE
  8
_0-0_0
  6
CONTINUOUS
 62
    7
 10
-19.072064039928278
 20
280.05649530756778
 11
-18.13356788657802
 21
280.99499146091795
  0
LINE
  8
_0-0_0
  6
CONTINUOUS
 62
    7
 10
-20.17581597839711
 20
278.95274336909886
 11
-19.922097769850694
 21
279.20646157764537
  0
LINE
  8
_0-0_0
  6
CONTINUOUS
 62
    7
 10
-15.966740301767941
 20
283.16181904572806
 11
-15.692084536324102
 21
283.43647481117187
  0
LINE
  8
_0-0_0
  6
CONTINUOUS
 62
    7
 10
-21.856399412062899
 20
277.27215993543319
 11
-21.564063750666434
 21
277.5644955968296
  0
LINE
  8
_0-0_0
  6
CONTINUOUS
 62
    7
 10
-19.072064039928278
 20
280.23327200286439
 11
-18.134258420544
 21
281.17107762224867
  0
LINE
  8
_0-0_0
  6
CONTINUOUS
 62
    7
 10
-20.403100300921323
 20
278.90223574187126
 11
-20.142293302588598
 21
279.1630427402041
  0
LINE
  8
_0-0_0
  6
CONTINUOUS
 62
    7
 10
-15.966740301767941
 20
283.33859574102478
 11
-15.868861231620741
 21
283.43647481117187
  0
LINE
  8
_0-0_0
  6
CONTINUOUS
 62
    7
 10
-22.093280183760384
 20
277.21205585903226
 11
-21.797408988457959
 21
277.50792705433468
  0
LINE
  8
_0-0_0
  6
CONTINUOUS
 62
    7
 10
-19.768156080514899
 20
279.71395665757438
 11
-19.587446125689922
 21
279.89466661239936
  0
LINE
  8
_0-0_0
  6
CONTINUOUS
 62
    7
 10
-20.628901696239097
 20
278.85321104185015
 11
-20.36248883532653
 21
279.11962390276278
  0
LINE
  8
_0-0_0
  6
CONTINUOUS
 62
    7
 10
-19.072064039928278
 20
280.41004869816106
 11
-18.134948954510008
 21
281.34716378357927
  0
LINE
  8
_0-0_0
  6
CONTINUOUS
 62
    7
 10
-22.354619219254232
 20
277.12749351883508
 11
-22.040600698083579
 21
277.4415120400057
  0
LINE
  8
_0-0_0
  6
CONTINUOUS
 62
    7
 10
-19.985727397803032
 20
279.67316203558289
 11
-19.62779241010125
 21
280.0310970232847
  0
LINE
  8
_0-0_0
  6
CONTINUOUS
 62
    7
 10
-20.853890217525702
 20
278.80499921586016
 11
-20.582684368064434
 21
279.07620506532146
  0
LINE
  8
_0-0_0
  6
CONTINUOUS
 62
    7
 10
-19.072064039928278
 20
280.58682539345767
 11
-18.135639488476016
 21
281.52324994490999
  0
LINE
  8
_0-0_0
  6
CONTINUOUS
 62
    7
 10
-22.642309091719482
 20
277.01658034166649
 11
-22.298748636489165
 21
277.36014079689681
  0
LINE
  8
_0-0_0
  6
CONTINUOUS
 62
    7
 10
-20.205876872194039
 20
279.62978925648849
 11
-19.706400441187952
 21
280.12926568749458
  0
LINE
  8
_0-0_0
  6
CONTINUOUS
 62
    7
 10
-21.078878738812335
 20
278.75678738987016
 11
-20.812730201097679
 21
279.02293592758491
  0
LINE
  8
_0-0_0
  6
CONTINUOUS
 62
    7
 10
-19.072064039928278
 20
280.76360208875428
 11
-18.136330022441995
 21
281.69933610624059
  0
LINE
  8
_0-0_0
  6
CONTINUOUS
 62
    7
 10
-22.899438830332769
 20
276.93622729834976
 11
-22.555074844669263
 21
277.28059128401326
  0
LINE
  8
_0-0_0
  6
CONTINUOUS
 62
    7
 10
-20.426072404931971
 20
279.58637041904728
 11
-19.903092878877203
 21
280.10934994510211
  0
LINE
  8
_0-0_0
  6
CONTINUOUS
 62
    7
 10
-21.302361787477252
 20
278.71008103650189
 11
-21.043680399791696
 21
278.9687624241875
  0
LINE
  8
_0-0_0
  6
CONTINUOUS
 62
    7
 10
-19.072064039928278
 20
280.940378784051
 11
-18.137020556408003
 21
281.87542226757119
  0
LINE
  8
_0-0_0
  6
CONTINUOUS
 62
    7
 10
-23.156568568946056
 20
276.85587425503308
 11
-22.811401052849419
 21
277.20104177112989
  0
LINE
  8
_0-0_0
  6
CONTINUOUS
 62
    7
 10
-20.646267937669875
 20
279.54295158160596
 11
-20.130315097619643
 21
280.05890442165616
  0
LINE
  8
_0-0_0
  6
CONTINUOUS
 62
    7
 10
-21.527156831936792
 20
278.66206268733895
 11
-21.274630598485686
 21
278.9145889207902
  0
LINE
  8
_0-0_0
  6
CONTINUOUS
 62
    7
 10
-19.072064039928278
 20
281.11715547934755
 11
-18.137711090374011
 21
282.05150842890191
  0
LINE
  8
_0-0_0
  6
CONTINUOUS
 62
    7
 10
-23.463585498876966
 20
276.72563402039889
 11
-23.081164416853994
 21
277.10805510242187
  0
LINE
  8
_0-0_0
  6
CONTINUOUS
 62
    7
 10
-20.862921545513557
 20
279.503074669059
 11
-20.338287680321542
 21
280.0277085342509
  0
LINE
  8
_0-0_0
  6
CONTINUOUS
 62
    7
 10
-21.76018065755511
 20
278.60581555701736
 11
-21.505580797179675
 21
278.8604154173928
  0
LINE
  8
_0-0_0
  6
CONTINUOUS
 62
    7
 10
-19.072064039928278
 20
281.29393217464416
 11
-18.138401624340019
 21
282.22759459023251
  0
LINE
  8
_0-0_0
  6
CONTINUOUS
 62
    7
 10
-23.747358615011052
 20
276.6186375995615
 11
-23.356150387315437
 21
277.00984582725698
  0
LINE
  8
_0-0_0
  6
CONTINUOUS
 62
    7
 10
-21.064446978151721
 20
279.47832593171739
 11
-20.550101741465738
 21
279.99267116840337
  0
LINE
  8
_0-0_0
  6
CONTINUOUS
 62
    7
 10
-21.9932044831734
 20
278.54956842669571
 11
-21.730481233265862
 21
278.8122916766033
  0
LINE
  8
_0-0_0
  6
CONTINUOUS
 62
    7
 10
-19.072064039928278
 20
281.47070886994077
 11
-18.139092158306027
 21
282.40368075156305
  0
LINE
  8
_0-0_0
  6
CONTINUOUS
 62
    7
 10
-24.031131731145137
 20
276.511641178724
 11
-23.631136357776881
 21
276.91163655209226
  0
LINE
  8
_0-0_0
  6
CONTINUOUS
 62
    7
 10
-21.265972410789885
 20
279.45357719437589
 11
-20.762233775821698
 21
279.95731582934399
  0
LINE
  8
_0-0_0
  6
CONTINUOUS
 62
    7
 10
-22.232945403441732
 20
278.4866042017241
 11
-21.97938827176361
 21
278.74016133340211
  0
LINE
  8
_0-0_0
  6
CONTINUOUS
 62
    7
 10
-19.072064039928278
 20
281.6474855652375
 11
-18.139782692272035
 21
282.57976691289366
  0
LINE
  8
_0-0_0
  6
CONTINUOUS
 62
    7
 10
-24.343694660644132
 20
276.37585494452156
 11
-23.928724873462613
 21
276.79082473170308
  0
LINE
  8
_0-0_0
  6
CONTINUOUS
 62
    7
 10
-21.467497843428077
 20
279.42882845703428
 11
-20.972964135813867
 21
279.9233621646486
  0
LINE
  8
_0-0_0
  6
CONTINUOUS
 62
    7
 10
-22.491796992983239
 20
278.4045293074792
 11
-22.229323494555103
 21
278.66700280590725
  0
LINE
  8
_0-0_0
  6
CONTINUOUS
 62
    7
 10
-19.072064039928278
 20
281.82426226053411
 11
-18.140473226238043
 21
282.75585307422437
  0
LINE
  8
_0-0_0
  6
CONTINUOUS
 62
    7
 10
-24.660986165022706
 20
276.23534013543968
 11
-24.234850370195829
 21
276.66147593026659
  0
LINE
  8
_0-0_0
  6
CONTINUOUS
 62
    7
 10
-21.706484295963861
 20
279.36661869979519
 11
-21.182739147565882
 21
279.8903638481932
  0
LINE
  8
_0-0_0
  6
CONTINUOUS
 62
    7
 10
-19.996242008920148
 20
281.07686098683888
 11
-19.828763998910631
 21
281.24433899684839
  0
LINE
  8
_0-0_0
  6
CONTINUOUS
 62
    7
 10
-22.755218845709975
 20
278.31788415004911
 11
-22.467972033205569
 21
278.60513096255345
  0
LINE
  8
_0-0_0
  6
CONTINUOUS
 62
    7
 10
-19.072064039928278
 20
282.00103895583077
 11
-18.141163760204022
 21
282.93193923555497
  0
LINE
  8
_0-0_0
  6
CONTINUOUS
 62
    7
 10
-24.990179521161337
 20
276.08292347459769
 11
-24.540975866929045
 21
276.53212712882998
  0
LINE
  8
_0-0_0
  6
CONTINUOUS
 62
    7
 10
-21.883260991260527
 20
279.36661869979519
 11
-21.392514159317897
 21
279.85736553173779
  0
LINE
  8
_0-0_0
  6
CONTINUOUS
 62
    7
 10
-20.208973286310992
 20
281.0409064047447
 11
-19.856216021447778
 21
281.39366366960786
  0
LINE
  8
_0-0_0
  6
CONTINUOUS
 62
    7
 10
-23.017793695500756
 20
278.23208599555488
 11
-22.706620571856007
 21
278.54325911919966
  0
LINE
  8
_0-0_0
  6
CONTINUOUS
 62
    7
 10
-19.072064039928278
 20
282.17781565112738
 11
-18.14185429417003
 21
283.10802539688569
  0
LINE
  8
_0-0_0
  6
CONTINUOUS
 62
    7
 10
-25.35257174651943
 20
275.89730794453629
 11
-24.894421971186432
 21
276.35545771986926
  0
LINE
  8
_0-0_0
  6
CONTINUOUS
 62
    7
 10
-22.080233647288622
 20
279.34642273906371
 11
-21.602289171069912
 21
279.82436721528239
  0
LINE
  8
_0-0_0
  6
CONTINUOUS
 62
    7
 10
-20.421704563701894
 20
281.00495182265046
 11
-19.931008911530568
 21
281.49564747482168
  0
LINE
  8
_0-0_0
  6
CONTINUOUS
 62
    7
 10
-23.274868236089673
 20
278.15178815026257
 11
-22.979349794240846
 21
278.44730659211148
  0
LINE
  8
_0-0_0
  6
CONTINUOUS
 62
    7
 10
-19.072064039928278
 20
282.35459234642411
 11
-18.142544828136038
 21
283.28411155821629
  0
LINE
  8
_0-0_0
  6
CONTINUOUS
 62
    7
 10
-25.743372383327425
 20
275.68328400302488
 11
-25.247975361779708
 21
276.17868102457259
  0
LINE
  8
_0-0_0
  6
CONTINUOUS
 62
    7
 10
-22.27721339347633
 20
279.32621968817261
 11
-21.812064182821899
 21
279.7913688988271
  0
LINE
  8
_0-0_0
  6
CONTINUOUS
 62
    7
 10
-20.634435841092738
 20
280.96899724055617
 11
-20.126687571252034
 21
281.47674551039699
  0
LINE
  8
_0-0_0
  6
CONTINUOUS
 62
    7
 10
-23.545925835544494
 20
278.05750724610436
 11
-23.25209098126993
 21
278.35134210037898
  0
LINE
  8
_0-0_0
  6
CONTINUOUS
 62
    7
 10
-19.072064039928278
 20
282.53136904172066
 11
-18.187184837894591
 21
283.4162482437544
  0
LINE
  8
_0-0_0
  6
CONTINUOUS
 62
    7
 10
-26.136209483986618
 20
275.46722359766226
 11
-25.601528752372985
 21
276.00190432927598
  0
LINE
  8
_0-0_0
  6
CONTINUOUS
 62
    7
 10
-22.446047295294704
 20
279.33416248165087
 11
-21.987167352808342
 21
279.79304242413729
  0
LINE
  8
_0-0_0
  6
CONTINUOUS
 62
    7
 10
-20.848351820955201
 20
280.93185795599038
 11
-20.339819125974372
 21
281.44039065097121
  0
LINE
  8
_0-0_0
  6
CONTINUOUS
 62
    7
 10
-23.816983434999372
 20
277.96322634194621
 11
-23.522328049295168
 21
278.25788172765049
  0
LINE
  8
_0-0_0
  6
CONTINUOUS
 62
    7
 10
-19.072064039928278
 20
282.70814573701727
 11
-18.33764485521408
 21
283.4425649217315
  0
LINE
  8
_0-0_0
  6
CONTINUOUS
 62
    7
 10
-26.529046584645811
 20
275.25116319229977
 11
-25.970698948616984
 21
275.80951082832859
  0
LINE
  8
_0-0_0
  6
CONTINUOUS
 62
    7
 10
-22.601066858862509
 20
279.35591961337968
 11
-22.139561055650261
 21
279.81742541659195
  0
LINE
  8
_0-0_0
  6
CONTINUOUS
 62
    7
 10
-21.065446008161615
 20
280.8915404640806
 11
-20.556070228958589
 21
281.40091624328357
  0
LINE
  8
_0-0_0
  6
CONTINUOUS
 62
    7
 10
-24.102747003053821
 20
277.85423946918848
 11
-23.791336063876997
 21
278.16565040836519
  0
LINE
  8
_0-0_0
  6
CONTINUOUS
 62
    7
 10
-19.072064039928278
 20
282.88492243231388
 11
-18.506845406426577
 21
283.45014106581567
  0
LINE
  8
_0-0_0
  6
CONTINUOUS
 62
    7
 10
-26.995646176903107
 20
274.96134029533908
 11
-26.39867750274567
 21
275.55830896949657
  0
LINE
  8
_0-0_0
  6
CONTINUOUS
 62
    7
 10
-22.756086422430342
 20
279.37767674510848
 11
-22.270744589507643
 21
279.86301857803118
  0
LINE
  8
_0-0_0
  6
CONTINUOUS
 62
    7
 10
-21.282540195368
 20
280.85122297217088
 11
-20.772321331942833
 21
281.36144183559611
  0
LINE
  8
_0-0_0
  6
CONTINUOUS
 62
    7
 10
-24.401742176284386
 20
277.7320209912545
 11
-24.060344078458854
 21
278.07341908908
  0
LINE
  8
_0-0_0
  6
CONTINUOUS
 62
    7
 10
-19.072064039928278
 20
283.0616991276106
 11
-18.676045957639047
 21
283.45771720989978
  0
LINE
  8
_0-0_0
  6
CONTINUOUS
 62
    7
 10
-27.551035109797624
 20
274.58272805774117
 11
-26.885406933615769
 21
275.24835623392306
  0
LINE
  8
_0-0_0
  6
CONTINUOUS
 62
    7
 10
-22.911105985998176
 20
279.3994338768374
 11
-22.380925061840741
 21
279.92961480099478
  0
LINE
  8
_0-0_0
  6
CONTINUOUS
 62
    7
 10
-21.499634382574413
 20
280.81090548026111
 11
-20.98857243492705
 21
281.32196742790847
  0
LINE
  8
_0-0_0
  6
CONTINUOUS
 62
    7
 10
-24.701493963961297
 20
277.60904589887417
 11
-24.359356503359833
 21
277.95118335947569
  0
LINE
  8
_0-0_0
  6
CONTINUOUS
 62
    7
 10
-19.072064039928278
 20
283.23847582290716
 11
-18.845246508851573
 21
283.465293353984
  0
LINE
  8
_0-0_0
  6
CONTINUOUS
 62
    7
 10
-28.136463424102032
 20
274.17407643873349
 11
-27.396577919929313
 21
274.91396194290621
  0
LINE
  8
_0-0_0
  6
CONTINUOUS
 62
    7
 10
-23.057193235007503
 20
279.43012332312468
 11
-22.475626862892511
 21
280.01168969523956
  0
LINE
  8
_0-0_0
  6
CONTINUOUS
 62
    7
 10
-21.70419575964982
 20
280.78312079848228
 11
-21.204823537911295
 21
281.28249302022078
  0
LINE
  8
_0-0_0
  6
CONTINUOUS
 62
    7
 10
-25.027714366220607
 20
277.45960219191158
 11
-24.645104696057188
 21
277.84221186207486
  0
LINE
  8
_0-0_0
  6
CONTINUOUS
 62
    7
 10
-19.062666375773687
 20
283.42465018235839
 11
-19.041382043909408
 21
283.44593451422269
  0
LINE
  8
_0-0_0
  6
CONTINUOUS
 62
    7
 10
-28.594764114340989
 20
273.8925524437912
 11
-27.978230272195673
 21
274.50908628593646
  0
LINE
  8
_0-0_0
  6
CONTINUOUS
 62
    7
 10
-23.186376204647359
 20
279.47771704878141
 11
-22.57032866394428
 21
280.09376458948446
  0
LINE
  8
_0-0_0
  6
CONTINUOUS
 62
    7
 10
-21.895114590570187
 20
280.76897866285855
 11
-21.42107464089554
 21
281.2430186125332
  0
LINE
  8
_0-0_0
  6
CONTINUOUS
 62
    7
 10
-25.355487822083091
 20
277.30860543134571
 11
-24.945053504153321
 21
277.7190397492755
  0
LINE
  8
_0-0_0
  6
CONTINUOUS
 62
    7
 10
-20.23664063949792
 20
282.42745261393076
 11
-20.083646772813835
 21
282.58044648061496
  0
LINE
  8
_0-0_0
  6
CONTINUOUS
 62
    7
 10
-28.782363872614979
 20
273.88172938081379
 11
-28.510942620389982
 21
274.15315063303876
  0
LINE
  8
_0-0_0
  6
CONTINUOUS
 62
    7
 10
-23.296488586863802
 20
279.54438136186161
 11
-22.66503046499605
 21
280.17583948372936
  0
LINE
  8
_0-0_0
  6
CONTINUOUS
 62
    7
 10
-22.11720813290762
 20
280.72366181581776
 11
-21.637325743879785
 21
281.20354420484568
  0
LINE
  8
_0-0_0
  6
CONTINUOUS
 62
    7
 10
-25.683261277945604
 20
277.15760867077977
 11
-25.298941976078481
 21
277.54192797264687
  0
LINE
  8
_0-0_0
  6
CONTINUOUS
 62
    7
 10
-20.446153759849494
 20
282.39471618887586
 11
-20.112085675934622
 21
282.72878427279079
  0
LINE
  8
_0-0_0
  6
CONTINUOUS
 62
    7
 10
-28.96996363088894
 20
273.87090631783649
 11
-28.760491539083886
 21
274.08037840964146
  0
LINE
  8
_0-0_0
  6
CONTINUOUS
 62
    7
 10
-23.394697862028579
 20
279.62294878199338
 11
-22.729496684634852
 21
280.28814995938716
  0
LINE
  8
_0-0_0
  6
CONTINUOUS
 62
    7
 10
-22.346012163691199
 20
280.6716344803309
 11
-21.858062088462389
 21
281.1595845555596
  0
LINE
  8
_0-0_0
  6
CONTINUOUS
 62
    7
 10
-26.066579783695942
 20
276.95106686032607
 11
-25.596724941457779
 21
277.42092170256427
  0
LINE
  8
_0-0_0
  6
CONTINUOUS
 62
    7
 10
-20.658029299000503
 20
282.3596173450216
 11
-20.178550749231703
 21
282.83909589479037
  0
LINE
  8
_0-0_0
  6
CONTINUOUS
 62
    7
 10
-29.154341107492626
 20
273.86330553652936
 11
-28.945124976393685
 21
274.07252166762839
  0
LINE
  8
_0-0_0
  6
CONTINUOUS
 62
    7
 10
-23.492907137193384
 20
279.70151620212527
 11
-22.746503036695145
 21
280.44792030262345
  0
LINE
  8
_0-0_0
  6
CONTINUOUS
 62
    7
 10
-24.541323770139825
 20
278.65309956917877
 11
-24.471892582824466
 21
278.72253075649427
  0
LINE
  8
_0-0_0
  6
CONTINUOUS
 62
    7
 10
-22.556460610472925
 20
280.63796272884576
 11
-22.079032957583194
 21
281.11539038173549
  0
LINE
  8
_0-0_0
  6
CONTINUOUS
 62
    7
 10
-26.469727853897893
 20
276.72469548542079
 11
-25.954697749433478
 21
277.23972558988521
  0
LINE
  8
_0-0_0
  6
CONTINUOUS
 62
    7
 10
-20.872418057126196
 20
282.32200528219249
 11
-20.354871388506523
 21
282.83955195081216
  0
LINE
  8
_0-0_0
  6
CONTINUOUS
 62
    7
 10
-29.320719173654168
 20
273.87370416566449
 11
-29.129758413703513
 21
274.0646649256152
  0
LINE
  8
_0-0_0
  6
CONTINUOUS
 62
    7
 10
-25.181131224731188
 20
278.19006880988411
 11
-24.199510332540285
 21
279.17168970207501
  0
LINE
  8
_0-0_0
  6
CONTINUOUS
 62
    7
 10
-23.591116412358189
 20
279.7800836222571
 11
-22.300003826703971
 21
281.07119620791127
  0
LINE
  8
_0-0_0
  6
CONTINUOUS
 62
    7
 10
-26.876314253080181
 20
276.49488578153506
 11
-26.312670557409177
 21
277.0585294772062
  0
LINE
  8
_0-0_0
  6
CONTINUOUS
 62
    7
 10
-21.086806815251918
 20
282.28439321936338
 11
-20.571565402095956
 21
282.79963463251937
  0
LINE
  8
_0-0_0
  6
CONTINUOUS
 62
    7
 10
-29.48709723981571
 20
273.88410279479955
 11
-29.307647431090202
 21
274.06355260352506
  0
LINE
  8
_0-0_0
  6
CONTINUOUS
 62
    7
 10
-25.55379560941057
 20
277.99418112050136
 11
-24.134037482430414
 21
279.4139392474816
  0
LINE
  8
_0-0_0
  6
CONTINUOUS
 62
    7
 10
-23.681597341707572
 20
279.86637938820427
 11
-22.520974695824776
 21
281.02700203408716
  0
LINE
  8
_0-0_0
  6
CONTINUOUS
 62
    7
 10
-27.282900652262441
 20
276.26507607764949
 11
-26.708246423841387
 21
276.83973030607057
  0
LINE
  8
_0-0_0
  6
CONTINUOUS
 62
    7
 10
-21.296179965891155
 20
282.2517967640208
 11
-20.788259415685388
 21
282.75971731422657
  0
LINE
  8
_0-0_0
  6
CONTINUOUS
 62
    7
 10
-29.653475305977252
 20
273.89450142393468
 11
-29.481427911212307
 21
274.06654881869957
  0
LINE
  8
_0-0_0
  6
CONTINUOUS
 62
    7
 10
-25.926459994089981
 20
277.79829343111856
 11
-24.136089288001329
 21
279.58866413720727
  0
LINE
  8
_0-0_0
  6
CONTINUOUS
 62
    7
 10
-23.761567751484648
 20
279.96318567372401
 11
-22.710193551544762
 21
281.01455987366381
  0
LINE
  8
_0-0_0
  6
CONTINUOUS
 62
    7
 10
-27.782648997033192
 20
275.94210442817541
 11
-27.120725379533524
 21
276.60402804567507
  0
LINE
  8
_0-0_0
  6
CONTINUOUS
 62
    7
 10
-21.503633538594868
 20
282.22111988661367
 11
-21.004953429274792
 21
282.71979999593378
  0
LINE
  8
_0-0_0
  6
CONTINUOUS
 62
    7
 10
-29.861253112375607
 20
273.86350031283296
 11
-29.65520839133444
 21
274.06954503387407
  0
LINE
  8
_0-0_0
  6
CONTINUOUS
 62
    7
 10
-26.206544548504581
 20
277.69498557200057
 11
-24.159659514040868
 21
279.74187060646426
  0
LINE
  8
_0-0_0
  6
CONTINUOUS
 62
    7
 10
-23.841538161261695
 20
280.05999195924346
 11
-22.823123226607094
 21
281.07840689389809
  0
LINE
  8
_0-0_0
  6
CONTINUOUS
 62
    7
 10
-28.338232896536908
 20
275.56329722396839
 11
-27.53320433522569
 21
276.36832578527946
  0
LINE
  8
_0-0_0
  6
CONTINUOUS
 62
    7
 10
-21.72377055537936
 20
282.17775956512588
 11
-21.222053126309816
 21
282.67947699419539
  0
LINE
  8
_0-0_0
  6
CONTINUOUS
 62
    7
 10
-30.034955447194022
 20
273.86657467331116
 11
-29.828988871456544
 21
274.07254124904869
  0
LINE
  8
_0-0_0
  6
CONTINUOUS
 62
    7
 10
-25.190253139922901
 20
278.88805367587889
 11
-24.206721472506103
 21
279.8715853432958
  0
LINE
  8
_0-0_0
  6
CONTINUOUS
 62
    7
 10
-26.524986778346686
 20
277.55332003745519
 11
-25.602418214193136
 21
278.4758886016088
  0
LINE
  8
_0-0_0
  6
CONTINUOUS
 62
    7
 10
-23.886104732304659
 20
280.19220208349719
 11
-22.881538402071754
 21
281.19676841373006
  0
LINE
  8
_0-0_0
  6
CONTINUOUS
 62
    7
 10
-29.015717172283046
 20
275.06258964351877
 11
-28.046581264150233
 21
276.03172555165156
  0
LINE
  8
_0-0_0
  6
CONTINUOUS
 62
    7
 10
-21.943907572163823
 20
282.13439924363808
 11
-21.443023995430621
 21
282.63528282037117
  0
LINE
  8
_0-0_0
  6
CONTINUOUS
 62
    7
 10
-30.2066813797679
 20
273.87162543603398
 11
-29.958755468136502
 21
274.11955134766537
  0
LINE
  8
_0-0_0
  6
CONTINUOUS
 62
    7
 10
-25.086262935115939
 20
279.16882057598246
 11
-24.261114301828143
 21
279.9939692092704
  0
LINE
  8
_0-0_0
  6
CONTINUOUS
 62
    7
 10
-23.909796454354705
 20
280.34528705674387
 11
-22.866881387720809
 21
281.3882021233777
  0
LINE
  8
_0-0_0
  6
CONTINUOUS
 62
    7
 10
-26.747725414420443
 20
277.5073580966781
 11
-25.988067025851592
 21
278.26701648524687
  0
LINE
  8
_0-0_0
  6
CONTINUOUS
 62
    7
 10
-22.164044588948343
 20
282.09103892215017
 11
-21.66194640845174
 21
282.59313710264677
  0
LINE
  8
_0-0_0
  6
CONTINUOUS
 62
    7
 10
-30.378407312341778
 20
273.87667619875679
 11
-28.539566036679588
 21
275.7155174744189
  0
LINE
  8
_0-0_0
  6
CONTINUOUS
 62
    7
 10
-25.098048048135751
 20
279.33381215825937
 11
-24.315779208309663
 21
280.11608099808546
  0
LINE
  8
_0-0_0
  6
CONTINUOUS
 62
    7
 10
-23.933488176404779
 20
280.49837202999037
 11
-22.79019618175468
 21
281.64166402464047
  0
LINE
  8
_0-0_0
  6
CONTINUOUS
 62
    7
 10
-26.9704640504942
 20
277.46139615590101
 11
-26.264163295497723
 21
278.1676969108974
  0
LINE
  8
_0-0_0
  6
CONTINUOUS
 62
    7
 10
-22.516728349519581
 20
281.91513185687557
 11
-21.8740784428077
 21
282.55778176358751
  0
LINE
  8
_0-0_0
  6
CONTINUOUS
 62
    7
 10
-30.550133244915656
 20
273.8817269614795
 11
-29.244921802845453
 21
275.18693840354967
  0
LINE
  8
_0-0_0
  6
CONTINUOUS
 62
    7
 10
-25.122215176440789
 20
279.48642172525097
 11
-24.371799992030446
 21
280.2368369096614
  0
LINE
  8
_0-0_0
  6
CONTINUOUS
 62
    7
 10
-27.193202686567985
 20
277.4154342151238
 11
-26.524926877225567
 21
278.08371002446619
  0
LINE
  8
_0-0_0
  6
CONTINUOUS
 62
    7
 10
-23.957179898454853
 20
280.65145700323699
 11
-22.08621047716366
 21
282.52242642452807
  0
LINE
  8
_0-0_0
  6
CONTINUOUS
 62
    7
 10
-30.693502878194891
 20
273.91513402349687
 11
-30.200025716952012
 21
274.40861118473981
  0
LINE
  8
_0-0_0
  6
CONTINUOUS
 62
    7
 10
-25.17498433921591
 20
279.61042925777246
 11
-24.4278207757512
 21
280.35759282123717
  0
LINE
  8
_0-0_0
  6
CONTINUOUS
 62
    7
 10
-23.980871620504899
 20
280.8045419764835
 11
-22.298342511519621
 21
282.48707108546881
  0
LINE
  8
_0-0_0
  6
CONTINUOUS
 62
    7
 10
-27.361498026305184
 20
277.42391557068316
 11
-26.70635559081947
 21
278.0790580061689
  0
LINE
  8
_0-0_0
  6
CONTINUOUS
 62
    7
 10
-25.227753501991031
 20
279.73443679029401
 11
-24.483841559471954
 21
280.47834873281306
  0
LINE
  8
_0-0_0
  6
CONTINUOUS
 62
    7
 10
-24.004563342554945
 20
280.95762694973007
 11
-22.510474545875581
 21
282.45171574640949
  0
LINE
  8
_0-0_0
  6
CONTINUOUS
 62
    7
 10
-27.52807606610392
 20
277.43411422618106
 11
-26.887784304413401
 21
278.07440598787167
  0
LINE
  8
_0-0_0
  6
CONTINUOUS
 62
    7
 10
-25.280522664766124
 20
279.85844432281561
 11
-24.539862343192737
 21
280.599104644389
  0
LINE
  8
_0-0_0
  6
CONTINUOUS
 62
    7
 10
-27.694654105902685
 20
277.44431288167896
 11
-27.055939188306211
 21
278.08302779927538
  0
LINE
  8
_0-0_0
  6
CONTINUOUS
 62
    7
 10
-24.009338159778678
 20
281.129628827803
 11
-22.752162725974983
 21
282.38680426160669
  0
LINE
  8
_0-0_0
  6
CONTINUOUS
 62
    7
 10
-29.373265957367578
 20
275.76570103021418
 11
-28.709057991589702
 21
276.42990899599197
  0
LINE
  8
_0-0_0
  6
CONTINUOUS
 62
    7
 10
-25.333291827541245
 20
279.98245185533698
 11
-24.595883126913491
 21
280.71986055596488
  0
LINE
  8
_0-0_0
  6
CONTINUOUS
 62
    7
 10
-27.835320145837556
 20
277.48042353704079
 11
-27.207394263967529
 21
278.10834941891079
  0
LINE
  8
_0-0_0
  6
CONTINUOUS
 62
    7
 10
-23.924792783767259
 20
281.39095089911108
 11
-23.086775756357894
 21
282.22896792652039
  0
LINE
  8
_0-0_0
  6
CONTINUOUS
 62
    7
 10
-30.43392612914738
 20
274.88181755373091
 11
-28.470107575848487
 21
276.8456361070298
  0
LINE
  8
_0-0_0
  6
CONTINUOUS
 62
    7
 10
-25.386283672938787
 20
280.10623670523619
 11
-24.651903910634274
 21
280.84061646754071
  0
LINE
  8
_0-0_0
  6
CONTINUOUS
 62
    7
 10
-27.951028528213527
 20
277.5414918499614
 11
-27.315741270762231
 21
278.17677910741269
  0
LINE
  8
_0-0_0
  6
CONTINUOUS
 62
    7
 10
-23.761831387540667
 20
281.73068899063429
 11
-23.604057747837202
 21
281.88846263033781
  0
LINE
  8
_0-0_0
  6
CONTINUOUS
 62
    7
 10
-31.415964483419088
 20
274.07655589475587
 11
-28.464011827734822
 21
277.0285085504401
  0
LINE
  8
_0-0_0
  6
CONTINUOUS
 62
    7
 10
-28.066736910589497
 20
277.60256016288207
 11
-27.419295309197707
 21
278.25000176427386
  0
LINE
  8
_0-0_0
  6
CONTINUOUS
 62
    7
 10
-25.43931668152777
 20
280.22998039194379
 11
-24.707924694355028
 21
280.96137237911659
  0
LINE
  8
_0-0_0
  6
CONTINUOUS
 62
    7
 10
-31.666340264584988
 20
274.0029568088866
 11
-28.461238626233608
 21
277.20805844723798
  0
LINE
  8
_0-0_0
  6
CONTINUOUS
 62
    7
 10
-28.182445292965496
 20
277.66362847580279
 11
-27.485586569933929
 21
278.36048719883427
  0
LINE
  8
_0-0_0
  6
CONTINUOUS
 62
    7
 10
-29.570375483812085
 20
276.2756982849562
 11
-28.48429645605492
 21
277.36177731271328
  0
LINE
  8
_0-0_0
  6
CONTINUOUS
 62
    7
 10
-25.493517259374016
 20
280.35255650939416
 11
-24.763945478075811
 21
281.08212829069236
  0
LINE
  8
_0-0_0
  6
CONTINUOUS
 62
    7
 10
-31.750076593936
 20
274.09599717483229
 11
-29.947601833795033
 21
275.8984719349732
  0
LINE
  8
_0-0_0
  6
CONTINUOUS
 62
    7
 10
-28.263559650664348
 20
277.75929081340046
 11
-27.551877830670179
 21
278.47097263339469
  0
LINE
  8
_0-0_0
  6
CONTINUOUS
 62
    7
 10
-29.470193526798396
 20
276.55265693726647
 11
-28.542764081169764
 21
277.48008638289508
  0
LINE
  8
_0-0_0
  6
CONTINUOUS
 62
    7
 10
-25.55295080348236
 20
280.46989966058248
 11
-24.819966261796565
 21
281.2028842022683
  0
LINE
  8
_0-0_0
  6
CONTINUOUS
 62
    7
 10
-31.833812923287041
 20
274.1890375407778
 11
-31.08218202828533
 21
274.94066843577951
  0
LINE
  8
_0-0_0
  6
CONTINUOUS
 62
    7
 10
-28.338555824426578
 20
277.86107133493499
 11
-27.605113547181673
 21
278.59451361217981
  0
LINE
  8
_0-0_0
  6
CONTINUOUS
 62
    7
 10
-25.612384347590705
 20
280.5872428117708
 11
-24.872025546057443
 21
281.32760161330406
  0
LINE
  8
_0-0_0
  6
CONTINUOUS
 62
    7
 10
-29.473655824118509
 20
276.725971335243
 11
-28.626500410520804
 21
277.5731267488407
  0
LINE
  8
_0-0_0
  6
CONTINUOUS
 62
    7
 10
-28.401666838129244
 20
277.97473701652887
 11
-27.658146555770656
 21
278.71825729888746
  0
LINE
  8
_0-0_0
  6
CONTINUOUS
 62
    7
 10
-25.671817891699049
 20
280.70458596295907
 11
-24.922533173285046
 21
281.45387068137307
  0
LINE
  8
_0-0_0
  6
CONTINUOUS
 62
    7
 10
-29.538784080280436
 20
276.83761977437768
 11
-28.710236739871845
 21
277.66616711478627
  0
LINE
  8
_0-0_0
  6
CONTINUOUS
 62
    7
 10
-28.458487918760283
 20
278.0946926311945
 11
-27.717004551562041
 21
278.83617599839266
  0
LINE
  8
_0-0_0
  6
CONTINUOUS
 62
    7
 10
-25.731251435807394
 20
280.82192911414739
 11
-24.979697880583103
 21
281.57348266937168
  0
LINE
  8
_0-0_0
  6
CONTINUOUS
 62
    7
 10
-29.633884399905781
 20
276.91929615004897
 11
-28.793973069222886
 21
277.7592074807319
  0
LINE
  8
_0-0_0
  6
CONTINUOUS
 62
    7
 10
-28.519979726456853
 20
278.20997751879457
 11
-27.77593011666093
 21
278.95402712859049
  0
LINE
  8
_0-0_0
  6
CONTINUOUS
 62
    7
 10
-25.790684979915766
 20
280.93927226533565
 11
-25.047288969961243
 21
281.68266827529021
  0
LINE
  8
_0-0_0
  6
CONTINUOUS
 62
    7
 10
-29.751144298662865
 20
276.97881294658856
 11
-28.90468828666917
 21
277.82526895858217
  0
LINE
  8
_0-0_0
  6
CONTINUOUS
 62
    7
 10
-28.582706940916949
 20
278.32402699963108
 11
-27.83485568175979
 21
279.07187825878827
  0
LINE
  8
_0-0_0
  6
CONTINUOUS
 62
    7
 10
-25.850118524024111
 20
281.05661541652386
 11
-25.12235241050547
 21
281.78438153004259
  0
LINE
  8
_0-0_0
  6
CONTINUOUS
 62
    7
 10
-29.927920993959503
 20
276.97881294658856
 11
-29.022539416866948
 21
277.88419452368106
  0
LINE
  8
_0-0_0
  6
CONTINUOUS
 62
    7
 10
-28.639488044529684
 20
278.44402259131499
 11
-27.893781246858679
 21
279.18972938898599
  0
LINE
  8
_0-0_0
  6
CONTINUOUS
 62
    7
 10
-25.909552068132455
 20
281.17395856771219
 11
-25.369241707940801
 21
281.7142689279039
  0
LINE
  8
_0-0_0
  6
CONTINUOUS
 62
    7
 10
-30.193165328630811
 20
276.89034530721386
 11
-29.198978265626038
 21
277.88453237021866
  0
LINE
  8
_0-0_0
  6
CONTINUOUS
 62
    7
 10
-28.694048752954557
 20
278.56623857818669
 11
-27.961737632584288
 21
279.29854969855699
  0
LINE
  8
_0-0_0
  6
CONTINUOUS
 62
    7
 10
-25.955083265430118
 20
281.30520406571127
 11
-25.747755620464289
 21
281.51253171067708
  0
LINE
  8
_0-0_0
  6
CONTINUOUS
 62
    7
 10
-30.921584579808211
 20
276.33870275133307
 11
-29.405076974081481
 21
277.85521035705988
  0
LINE
  8
_0-0_0
  6
CONTINUOUS
 62
    7
 10
-28.748609461379459
 20
278.68845456505846
 11
-28.025573224365814
 21
279.41149080207219
  0
LINE
  8
_0-0_0
  6
CONTINUOUS
 62
    7
 10
-31.869761869922285
 20
275.56730215651566
 11
-29.626047843202286
 21
277.81101618323566
  0
LINE
  8
_0-0_0
  6
CONTINUOUS
 62
    7
 10
-28.80317016980436
 20
278.81067055193017
 11
-28.077951504453693
 21
279.53588921728089
  0
LINE
  8
_0-0_0
  6
CONTINUOUS
 62
    7
 10
-32.239593692338729
 20
275.37424702939586
 11
-29.988507637867883
 21
277.62533308386667
  0
LINE
  8
_0-0_0
  6
CONTINUOUS
 62
    7
 10
-28.857730878229233
 20
278.93288653880199
 11
-28.130329784541572
 21
279.66028763248971
  0
LINE
  8
_0-0_0
  6
CONTINUOUS
 62
    7
 10
-32.493854828612853
 20
275.2967625884184
 11
-30.513925495320734
 21
277.27669192171049
  0
LINE
  8
_0-0_0
  6
CONTINUOUS
 62
    7
 10
-28.914941852333953
 20
279.05245225999391
 11
-28.18270806462948
 21
279.78468604769835
  0
LINE
  8
_0-0_0
  6
CONTINUOUS
 62
    7
 10
-32.670631523909491
 20
275.2967625884184
 11
-31.539230328041242
 21
276.4281637842867
  0
LINE
  8
_0-0_0
  6
CONTINUOUS
 62
    7
 10
-28.977333627144531
 20
279.16683718048
 11
-28.240241195653794
 21
279.90392961197068
  0
LINE
  8
_0-0_0
  6
CONTINUOUS
 62
    7
 10
-32.812574283278763
 20
275.33159652434579
 11
-31.929926205658773
 21
276.21424460196567
  0
LINE
  8
_0-0_0
  6
CONTINUOUS
 62
    7
 10
-29.039725401955109
 20
279.28122210096597
 11
-28.300278563867749
 21
280.02066893905339
  0
LINE
  8
_0-0_0
  6
CONTINUOUS
 62
    7
 10
-32.946138897502891
 20
275.3748086054183
 11
-32.106702900955411
 21
276.21424460196567
  0
LINE
  8
_0-0_0
  6
CONTINUOUS
 62
    7
 10
-29.102117176765688
 20
279.39560702145206
 11
-28.360315932081675
 21
280.1374082661361
  0
LINE
  8
_0-0_0
  6
CONTINUOUS
 62
    7
 10
-33.079703511727018
 20
275.41802068649076
 11
-32.237073072807646
 21
276.2606511254101
  0
LINE
  8
_0-0_0
  6
CONTINUOUS
 62
    7
 10
-29.164508951576266
 20
279.50999194193821
 11
-28.437450539840995
 21
280.23705035367351
  0
LINE
  8
_0-0_0
  6
CONTINUOUS
 62
    7
 10
-33.172815076653392
 20
275.50168581686108
 11
-32.328509294512798
 21
276.34599159900159
  0
LINE
  8
_0-0_0
  6
CONTINUOUS
 62
    7
 10
-29.217892800213888
 20
279.63338478859719
 11
-28.716860513746922
 21
280.13441707506416
  0
LINE
  8
_0-0_0
  6
CONTINUOUS
 62
    7
 10
-33.256551406004433
 20
275.59472618280659
 11
-32.387391968525093
 21
276.46388562028596
  0
LINE
  8
_0-0_0
  6
CONTINUOUS
 62
    7
 10
-30.931482937877404
 20
278.09657134623029
 11
-30.116861295270581
 21
278.91119298883705
  0
LINE
  8
_0-0_0
  6
CONTINUOUS
 62
    7
 10
-29.269215066590334
 20
279.75883921751739
 11
-29.044417331502472
 21
279.9836369526053
  0
LINE
  8
_0-0_0
  6
CONTINUOUS
 62
    7
 10
-33.340287735355474
 20
275.68776654875216
 11
-32.418902793845404
 21
276.60915149026226
  0
LINE
  8
_0-0_0
  6
CONTINUOUS
 62
    7
 10
-31.948438813312463
 20
277.25639216609187
 11
-30.193305271615059
 21
279.0115257077893
  0
LINE
  8
_0-0_0
  6
CONTINUOUS
 62
    7
 10
-33.423417405289285
 20
275.7814135741151
 11
-32.355282444113385
 21
276.84954853529097
  0
LINE
  8
_0-0_0
  6
CONTINUOUS
 62
    7
 10
-33.475410550964767
 20
275.9061971237362
 11
-30.269749247959538
 21
279.11185842674137
  0
LINE
  8
_0-0_0
  6
CONTINUOUS
 62
    7
 10
-33.481236688588808
 20
276.0771476814088
 11
-30.454711059813888
 21
279.1036733101838
  0
LINE
  8
_0-0_0
  6
CONTINUOUS
 62
    7
 10
-33.41171123855716
 20
276.32344982673708
 11
-31.474124664490233
 21
278.26103640080395
  0
LINE
  8
_0-0_0
  6
CONTINUOUS
 62
    7
 10
-33.184496820413215
 20
276.7274409401777
 11
-32.507368690113992
 21
277.40456907047689
  0
TEXT
  8
_0-3_TEXT
 62
    7
 10
48.300853967367515
 20
243.55285921443538
 40
3
 41
1
 50
0
  1
皿ビス 2-M4×45(D-7)ナット付き
  0
TEXT
  8
_0-3_TEXT
 62
    7
 10
269.61171819958025
 20
141.57721486741769
 40
3
 41
1
 50
0
  1
4-5.5φ×7.5φ皿孔
  0
TEXT
  8
_0-3_TEXT
 62
    7
 10
269.61171819958025
 20
136.57721486741769
 40
3
 41
1
 50
0
  1
(タッピング皿ネジ φ3.5×25用)
  0
TEXT
  8
_0-3_TEXT
 62
    7
 10
-33.13706402643794
 20
50.000000000000028
 40
3.25
 41
1
 50
0
  1
※皿ビス M4×45(D-7) 2本、
  0
TEXT
  8
_0-3_TEXT
 62
    7
 10
-33.13706402643794
 20
38.000000000000028
 40
3.25
 41
1
 50
0
  1
　タッピング皿ネジ φ3.5×25 8本付属
  0
TEXT
  8
_0-3_TEXT
 62
    7
 10
73.794458315993949
 20
55.33035095020115
 40
3
 41
1
 50
0
  1
2-5.5φ×7.5φ皿孔
  0
TEXT
  8
_0-3_TEXT
 62
    7
 10
182.13639245254492
 20
180.66080037775847
 40
3
 41
1
 50
0.0000000000000246
  1
2-φ3.5×25
  0
TEXT
  8
_0-3_TEXT
 62
    7
 10
261.0288144309257
 20
112.01750173019428
 40
3
 41
1
 50
-0.0000000000000246
  1
4-φ3.5×25
  0
ENDSEC
  0
EOF
