  0
SECTION
  2
HEADER
  9
$ACADVER
  1
AC1009
  9
$INSBASE
 10
0
 20
0
 30
0
  9
$EXTMIN
 10
0
 20
0
  9
$EXTMAX
 10
594
 20
420
  9
$LIMMIN
 10
0
 20
0
  9
$LIMMAX
 10
594
 20
420
  9
$LTSCALE
 40
2
  0
ENDSEC
  0
SECTION
  2
TABLES
  0
TABLE
  2
LTYPE
 70
     9
  0
LTYPE
  2
CONTINUOUS
 70
    64
  3
実線
 72
    65
 73
     0
 40
0.0
  0
LTYPE
  2
DASHED1
 70
    64
  3
--  --  --  --  --  --  --  --  
 72
    65
 73
     2
 40
2.5
 49
1.25
 49
-1.25
  0
LTYPE
  2
DASHED2
 70
    64
  3
----    ----    ----    ----    
 72
    65
 73
     2
 40
5.0
 49
2.5
 49
-2.5
  0
LTYPE
  2
DASHED3
 70
    64
  3
------  ------  ------  ------  
 72
    65
 73
     2
 40
5.0
 49
3.75
 49
-1.25
  0
LTYPE
  2
CENTER1
 70
    64
  3
----- - ----- - ----- - ----- - 
 72
    65
 73
     4
 40
10.0
 49
6.25
 49
-1.25
 49
1.25
 49
-1.25
  0
LTYPE
  2
CENTER2
 70
    64
  3
----------  --  ----------  --  
 72
    65
 73
     4
 40
20.0
 49
12.5
 49
-2.5
 49
2.5
 49
-2.5
  0
LTYPE
  2
PHANTOM1
 70
    64
  3
--- - - --- - - --- - - --- - - 
 72
    65
 73
     6
 40
10.0
 49
3.25
 49
-1.25
 49
1.25
 49
-1.25
 49
1.25
 49
-1.25
  0
LTYPE
  2
PHANTOM2
 70
    64
  3
--------  -  -  --------  -  -  
 72
    65
 73
     6
 40
20.0
 49
10.0
 49
-2.5
 49
1.25
 49
-2.5
 49
1.25
 49
-2.5
  0
LTYPE
  2
DOT
 70
    64
  3
-   -   -   -   -   -   -   -   
 72
    65
 73
     2
 40
2.5
 49
0.625
 49
-1.875
  0
LTYPE
  2
DUMMY
 70
    64
  3
ダミー
 72
    65
 73
     0
 40
0.0
  0
LTYPE
  2
RAND1
 70
    64
  3
ランダム線1
 72
    65
 73
     4
 40
10.0
 49
1.0
 49
-2.0
 49
3.0
 49
-4.0
  0
LTYPE
  2
RAND2
 70
    64
  3
ランダム線2
 72
    65
 73
     4
 40
14.0
 49
2.0
 49
-3.0
 49
4.0
 49
-5.0
  0
LTYPE
  2
RAND3
 70
    64
  3
ランダム線3
 72
    65
 73
     4
 40
18.0
 49
3.0
 49
-4.0
 49
5.0
 49
-6.0
  0
LTYPE
  2
RAND4
 70
    64
  3
ランダム線4
 72
    65
 73
     4
 40
22.0
 49
4.0
 49
-5.0
 49
6.0
 49
-7.0
  0
LTYPE
  2
RAND5
 70
    64
  3
ランダム線5
 72
    65
 73
     4
 40
26.0
 49
5.0
 49
-6.0
 49
7.0
 49
-8.0
  0
LTYPE
  2
LONG1
 70
    64
  3
----------  --  ----------  --  
 72
    65
 73
     4
 40
40.0
 49
32.5
 49
-2.5
 49
2.5
 49
-2.5
  0
LTYPE
  2
LONG2
 70
    64
  3
--------  -  -  --------  -  -  
 72
    65
 73
     6
 40
40.0
 49
30.0
 49
-2.5
 49
1.25
 49
-2.5
 49
1.25
 49
-2.5
  0
LTYPE
  2
LONG3
 70
    64
  3
+++++++++++++++..+++++++++++++++
 72
    65
 73
     2
 40
40.0
 49
37.5
 49
-2.5
  0
LTYPE
  2
LONG4
 70
    64
  3
+++++++++++++++..+++++++++++++++
 72
    65
 73
     2
 40
80.0
 49
75.0
 49
-5.0
  0
LTYPE
  2
LONG5
 70
    64
  3
----------  --  ----------  --  
 72
    65
 73
     4
 40
60.0
 49
37.5
 49
-7.5
 49
7.5
 49
-7.5
  0
LTYPE
  2
dashed
 70
   64
  3
-------   -------------   ------
 72
   65
 73
    2
 40
7.5
 49
6
 49
-1.5
  0
LTYPE
  2
dashed_spaced
 70
   64
  3
----        --------        ----
 72
   65
 73
    2
 40
12
 49
6
 49
-6
  0
LTYPE
  2
long_dashed_dotted
 70
   64
  3
------------- --- --------------
 72
   65
 73
    4
 40
15.25
 49
12
 49
-1.5
 49
0.25
 49
-1.5
  0
LTYPE
  2
long_dashed_double-dotted
 70
   64
  3
----------- --- --- ------------
 72
   65
 73
    6
 40
17
 49
12
 49
-1.5
 49
0.25
 49
-1.5
 49
0.25
 49
-1.5
  0
LTYPE
  2
long_dashed_triplicate-dotted
 70
   64
  3
--------- --- --- --- ----------
 72
   65
 73
    8
 40
18.75
 49
12
 49
-1.5
 49
0.25
 49
-1.5
 49
0.25
 49
-1.5
 49
0.25
 49
-1.5
  0
LTYPE
  2
dotted
 70
   64
  3
   -       -       -       -    
 72
   65
 73
    2
 40
1.75
 49
0.25
 49
-1.5
  0
LTYPE
  2
chain
 70
   64
  3
-------------- -- --------------
 72
   65
 73
    4
 40
18.5
 49
12
 49
-1.5
 49
3.5
 49
-1.5
  0
LTYPE
  2
chain_double_dash
 70
   64
  3
------------ -- -- -------------
 72
   65
 73
    6
 40
23.5
 49
12
 49
-1.5
 49
3.5
 49
-1.5
 49
3.5
 49
-1.5
  0
LTYPE
  2
dashed_dotted
 70
   64
  3
-----------     -     ----------
 72
   65
 73
    4
 40
9.25
 49
6
 49
-1.5
 49
0.25
 49
-1.5
  0
LTYPE
  2
double-dashed_dotted
 70
   64
  3
------   -----------   -   -----
 72
   65
 73
    6
 40
16.75
 49
6
 49
-1.5
 49
6
 49
-1.5
 49
0.25
 49
-1.5
  0
LTYPE
  2
dashed_double-dotted
 70
   64
  3
---------    -    -    ---------
 72
   65
 73
    6
 40
11
 49
6
 49
-1.5
 49
0.25
 49
-1.5
 49
0.25
 49
-1.5
  0
LTYPE
  2
double-dashed_double-dotted
 70
   64
  3
-----   ---------   -   -   ----
 72
   65
 73
    8
 40
18.5
 49
6
 49
-1.5
 49
6
 49
-1.5
 49
0.25
 49
-1.5
 49
0.25
 49
-1.5
  0
LTYPE
  2
dashed_triplicate-dotted
 70
   64
  3
-------    -    -    -    ------
 72
   65
 73
    8
 40
12.75
 49
6
 49
-1.5
 49
0.25
 49
-1.5
 49
0.25
 49
-1.5
 49
0.25
 49
-1.5
  0
LTYPE
  2
double-dashed_triplicate-dotted
 70
   64
  3
-----  ---------  -  -  -  -----
 72
   65
 73
   10
 40
20.25
 49
6
 49
-1.5
 49
6
 49
-1.5
 49
0.25
 49
-1.5
 49
0.25
 49
-1.5
 49
0.25
 49
-1.5
  0
LTYPE
  2
undefined
 70
   64
  3
--------------------------------
 72
   65
 73
    0
 40
0
  0
LTYPE
  2
DASHED
 70
   64
  3
------     -----------     -----
 72
   65
 73
    2
 40
0.75
 49
0.5
 49
-0.25
  0
LTYPE
  2
CENTER
 70
   64
  3
----------    ----    ----------
 72
   65
 73
    4
 40
2
 49
1.25
 49
-0.25
 49
0.25
 49
-0.25
  0
LTYPE
  2
HIDDEN
 70
   64
  3
------     -----------     -----
 72
   65
 73
    2
 40
3
 49
2
 49
-1
  0
LTYPE
  2
PHANTOM
 70
   64
  3
---------   ---   ---   --------
 72
   65
 73
    6
 40
2.5
 49
1.25
 49
-0.25
 49
0.25
 49
-0.25
 49
0.25
 49
-0.25
  0
LTYPE
  2
_
 70
   64
  3
                                
 72
   65
 73
    0
 40
0
  0
LTYPE
  2
__22
 70
   64
  3
                                
 72
   65
 73
    0
 40
0
  0
LTYPE
  2
__23
 70
   64
  3
                                
 72
   65
 73
    0
 40
0
  0
LTYPE
  2
__24
 70
   64
  3
                                
 72
   65
 73
    0
 40
0
  0
LTYPE
  2
__25
 70
   64
  3
                                
 72
   65
 73
    0
 40
0
  0
LTYPE
  2
__26
 70
   64
  3
                                
 72
   65
 73
    0
 40
0
  0
LTYPE
  2
__27
 70
   64
  3
                                
 72
   65
 73
    0
 40
0
  0
LTYPE
  2
__28
 70
   64
  3
                                
 72
   65
 73
    0
 40
0
  0
LTYPE
  2
__29
 70
   64
  3
                                
 72
   65
 73
    0
 40
0
  0
LTYPE
  2
__30
 70
   64
  3
                                
 72
   65
 73
    0
 40
0
  0
LTYPE
  2
__31
 70
   64
  3
                                
 72
   65
 73
    0
 40
0
  0
LTYPE
  2
__32
 70
   64
  3
                                
 72
   65
 73
    0
 40
0
  0
ENDTAB
  0
TABLE
  2
STYLE
  5
3
100
AcDbSymbolTable
 70
     1
  0
STYLE
  5
10
100
AcDbSymbolTableRecord
100
AcDbTextStyleTableRecord
  2
STANDARD
 70
     0
 40
0.0
 41
1.0
 50
0.0
 71
     0
 42
0.2
  3
txt
  4
bigfont.shx
  0
STYLE
  5
26
100
AcDbSymbolTableRecord
100
AcDbTextStyleTableRecord
  2
TATEGAKI
 70
    68
 40
0.0
 41
1.0
 50
0.0
 71
     0
 42
1.0
  3
txt
  4
bigfont.shx
  0
ENDTAB
  0
TABLE
  2
LAYER
 70
   10
  0
LAYER
  2
_0-1_ZUWAKU
 70
   64
 62
    7
  6
CONTINUOUS
  0
LAYER
  2
_0-2_SUNPOU
 70
   64
 62
    7
  6
CONTINUOUS
  0
LAYER
  2
_0-3_TEXT
 70
   64
 62
    7
  6
CONTINUOUS
  0
LAYER
  2
_0-4_HONTAI
 70
   64
 62
    7
  6
CONTINUOUS
  0
LAYER
  2
_0-5_CENTER
 70
   64
 62
    7
  6
CONTINUOUS
  0
LAYER
  2
_0-6_OSAMARISANKOU
 70
   64
 62
    7
  6
CONTINUOUS
  0
LAYER
  2
_0-7_DEFPOINTS
 70
   64
 62
    7
  6
CONTINUOUS
  0
LAYER
  2
_0-8_HONTAIFUKASIBU
 70
   64
 62
    7
  6
CONTINUOUS
  0
LAYER
  2
_0-9_1
 70
   64
 62
    7
  6
CONTINUOUS
  0
LAYER
  2
ADD_LINE
 70
   64
 62
    7
  6
CONTINUOUS
  0
ENDTAB
  0
ENDSEC
  0
SECTION
  2
BLOCKS
  0
BLOCK
  2
-000-_X1
 70
   64
 10
0
 20
0
 30
0
  0
LINE
  8
_0-0_0
  6
CONTINUOUS
 62
    7
 10
30.522879643656768
 20
0.2940647479318485
 11
30.6259771796039
 21
0.3971622838789822
  0
LINE
  8
_0-0_0
  6
CONTINUOUS
 62
    7
 10
30.346102948360119
 20
0.2940647479318485
 11
30.53578544704198
 21
0.4837472466137083
  0
LINE
  8
_0-0_0
  6
CONTINUOUS
 62
    7
 10
31.760454058092168
 20
1.8851925529605289
 11
31.99183965006323
 21
2.1165781449315907
  0
LINE
  8
_0-0_0
  6
CONTINUOUS
 62
    7
 10
30.169326253063481
 20
0.294064747931845
 11
30.440516569337198
 21
0.5652550642055659
  0
LINE
  8
_0-0_0
  6
CONTINUOUS
 62
    7
 10
31.331584225822329
 20
1.6330994159873251
 11
32.23916661744365
 21
2.5406818076086539
  0
LINE
  8
_0-0_0
  6
CONTINUOUS
 62
    7
 10
29.992549557766849
 20
0.2940647479318485
 11
30.34524769163243
 21
0.6467628817974323
  0
LINE
  8
_0-0_0
  6
CONTINUOUS
 62
    7
 10
31.097416647889229
 20
1.57570853335087
 11
32.31376020064328
 21
2.7920520861049151
  0
LINE
  8
_0-0_0
  6
CONTINUOUS
 62
    7
 10
29.815772862470211
 20
0.2940647479318485
 11
30.249978813927661
 21
0.7282706993892952
  0
LINE
  8
_0-0_0
  6
CONTINUOUS
 62
    7
 10
29.935791339462131
 20
0.5908599202203959
 11
30.154709936222879
 21
0.8097785169811562
  0
LINE
  8
_0-0_0
  6
CONTINUOUS
 62
    7
 10
30.886285769130719
 20
1.5413543498889958
 11
32.317777852809108
 21
2.9728464335673829
  0
LINE
  8
_0-0_0
  6
CONTINUOUS
 62
    7
 10
29.63899616717358
 20
0.2940647479318485
 11
29.891156812337001
 21
0.5462253930952718
  0
LINE
  8
_0-0_0
  6
CONTINUOUS
 62
    7
 10
29.890403181066421
 20
0.7222484571213279
 11
30.0594410585181
 21
0.8912863345730188
  0
LINE
  8
_0-0_0
  6
CONTINUOUS
 62
    7
 10
30.738971856383521
 20
1.5708171324384379
 11
32.32179550497495
 21
3.153640781029853
  0
LINE
  8
_0-0_0
  6
CONTINUOUS
 62
    7
 10
29.462219471876938
 20
0.2940647479318485
 11
29.65129240443408
 21
0.483137680488996
  0
LINE
  8
_0-0_0
  6
CONTINUOUS
 62
    7
 10
29.815516237842459
 20
0.8241382091940072
 11
29.964172180813328
 21
0.9727941521648799
  0
LINE
  8
_0-0_0
  6
CONTINUOUS
 62
    7
 10
30.591657943636331
 20
1.600279914987877
 11
32.305314560774363
 21
3.3139365321259131
  0
LINE
  8
_0-0_0
  6
CONTINUOUS
 62
    7
 10
29.2854427765803
 20
0.294064747931845
 11
29.476319552967009
 21
0.4849415243185539
  0
LINE
  8
_0-0_0
  6
CONTINUOUS
 62
    7
 10
29.698667559132001
 20
0.8840662257801843
 11
29.86890330310856
 21
1.0543019697567419
  0
LINE
  8
_0-0_0
  6
CONTINUOUS
 62
    7
 10
30.444344030889141
 20
1.6297426975373179
 11
32.265354098012849
 21
3.450752764661038
  0
LINE
  8
_0-0_0
  6
CONTINUOUS
 62
    7
 10
29.109990421181969
 20
0.2953890878301574
 11
29.30134670149993
 21
0.4867453681481139
  0
LINE
  8
_0-0_0
  6
CONTINUOUS
 62
    7
 10
29.60950486108701
 20
0.9716802230318376
 11
29.773634425403781
 21
1.135809787348605
  0
LINE
  8
_0-0_0
  6
CONTINUOUS
 62
    7
 10
30.303730136732621
 20
1.665905498677441
 11
32.218213645933737
 21
3.58038900787857
  0
LINE
  8
_0-0_0
  6
CONTINUOUS
 62
    7
 10
28.935933367351438
 20
0.2981087292962615
 11
29.126373850032848
 21
0.4885492119776719
  0
LINE
  8
_0-0_0
  6
CONTINUOUS
 62
    7
 10
29.512477050886609
 20
1.051429108128066
 11
29.678365547699009
 21
1.217317604940469
  0
LINE
  8
_0-0_0
  6
CONTINUOUS
 62
    7
 10
30.172280799204351
 20
1.711232856445809
 11
32.171073193854653
 21
3.710025251096102
  0
LINE
  8
_0-0_0
  6
CONTINUOUS
 62
    7
 10
28.7618763135209
 20
0.3008283707623621
 11
28.95140099856577
 21
0.4903530558072278
  0
LINE
  8
_0-0_0
  6
CONTINUOUS
 62
    7
 10
30.040831461676081
 20
1.7565602142141789
 11
30.716617439509281
 21
2.4323461920473761
  0
LINE
  8
_0-0_0
  6
CONTINUOUS
 62
    7
 10
29.4154492406862
 20
1.1311779932242929
 11
29.58309666999424
 21
1.298825422532333
  0
LINE
  8
_0-0_0
  6
CONTINUOUS
 62
    7
 10
31.333741473414878
 20
3.0494702259529788
 11
32.114970727365111
 21
3.8306994799032061
  0
LINE
  8
_0-0_0
  6
CONTINUOUS
 62
    7
 10
28.58781925969037
 20
0.3035480122284663
 11
28.776428147098691
 21
0.4921568996367859
  0
LINE
  8
_0-0_0
  6
CONTINUOUS
 62
    7
 10
29.922684430926668
 20
1.815189878761406
 11
30.451935911645808
 21
2.344441359480534
  0
LINE
  8
_0-0_0
  6
CONTINUOUS
 62
    7
 10
29.318421430485791
 20
1.2109268783205169
 11
29.484612312547088
 21
1.37711776038183
  0
LINE
  8
_0-0_0
  6
CONTINUOUS
 62
    7
 10
31.435238613772419
 20
3.3277440616071491
 11
32.04964020953809
 21
3.942145657372821
  0
LINE
  8
_0-0_0
  6
CONTINUOUS
 62
    7
 10
28.425818177740758
 20
0.318323625575493
 11
28.601455295631609
 21
0.4939607434663441
  0
LINE
  8
_0-0_0
  6
CONTINUOUS
 62
    7
 10
29.807314377154138
 20
1.8765965202855039
 11
30.256626309314441
 21
2.3259084524458097
  0
LINE
  8
_0-0_0
  6
CONTINUOUS
 62
    7
 10
29.221393620285379
 20
1.2906757634167449
 11
29.3842206090453
 21
1.453502752176673
  0
LINE
  8
_0-0_0
  6
CONTINUOUS
 62
    7
 10
31.483626812460368
 20
3.5529089555917368
 11
31.984309691711079
 21
4.053591834842444
  0
LINE
  8
_0-0_0
  6
CONTINUOUS
 62
    7
 10
28.32622567334829
 20
0.3955078164796593
 11
28.481449785227059
 21
0.5507319283584255
  0
LINE
  8
_0-0_0
  6
CONTINUOUS
 62
    7
 10
29.691944323381591
 20
1.9380031618096
 11
30.117523335966268
 21
2.363582174394275
  0
LINE
  8
_0-0_0
  6
CONTINUOUS
 62
    7
 10
29.12436581008497
 20
1.3704246485129749
 11
29.283828905543508
 21
1.529887743971519
  0
LINE
  8
_0-0_0
  6
CONTINUOUS
 62
    7
 10
31.45416402991092
 20
3.7002228683389342
 11
31.91172004557746
 21
4.1577788840054612
  0
LINE
  8
_0-0_0
  6
CONTINUOUS
 62
    7
 10
28.226633168955821
 20
0.4726920073838237
 11
28.370183689587339
 21
0.6162425280153486
  0
LINE
  8
_0-0_0
  6
CONTINUOUS
 62
    7
 10
29.57657426960905
 20
1.9994098033336928
 11
29.978420362618088
 21
2.401255896342731
  0
LINE
  8
_0-0_0
  6
CONTINUOUS
 62
    7
 10
29.027337999884558
 20
1.4501735336091989
 11
29.183437202041719
 21
1.606272735766357
  0
LINE
  8
_0-0_0
  6
CONTINUOUS
 62
    7
 10
31.424701247361479
 20
3.8475367810861298
 11
31.829581379075978
 21
4.252416912800629
  0
LINE
  8
_0-0_0
  6
CONTINUOUS
 62
    7
 10
28.127040664563349
 20
0.549876198287988
 11
28.270356849890418
 21
0.6931923836150613
  0
LINE
  8
_0-0_0
  6
CONTINUOUS
 62
    7
 10
29.461204215836509
 20
2.060816444857787
 11
29.839317389269918
 21
2.4389296182912008
  0
LINE
  8
_0-0_0
  6
CONTINUOUS
 62
    7
 10
28.930310189684139
 20
1.5299224187054258
 11
29.083045498539931
 21
1.6826577275612029
  0
LINE
  8
_0-0_0
  6
CONTINUOUS
 62
    7
 10
31.36594067110705
 20
3.9655529001283329
 11
31.747442712574521
 21
4.3470549415957986
  0
LINE
  8
_0-0_0
  6
CONTINUOUS
 62
    7
 10
28.02744816017087
 20
0.6270603891921544
 11
28.170530010193491
 21
0.770142239214774
  0
LINE
  8
_0-0_0
  6
CONTINUOUS
 62
    7
 10
29.345834162063969
 20
2.122223086381886
 11
29.704048839961458
 21
2.48043776427938
  0
LINE
  8
_0-0_0
  6
CONTINUOUS
 62
    7
 10
28.83328237948374
 20
1.609671303801651
 11
28.982653795038128
 21
1.759042719356044
  0
LINE
  8
_0-0_0
  6
CONTINUOUS
 62
    7
 10
31.298349581728931
 20
4.0747385060468426
 11
31.66530404607305
 21
4.4416929703909637
  0
LINE
  8
_0-0_0
  6
CONTINUOUS
 62
    7
 10
27.92581618704288
 20
0.7022051113607902
 11
28.070703170496571
 21
0.8470920948144866
  0
LINE
  8
_0-0_0
  6
CONTINUOUS
 62
    7
 10
29.239148583586789
 20
2.192314203201342
 11
29.587309512878778
 21
2.5404751324933321
  0
LINE
  8
_0-0_0
  6
CONTINUOUS
 62
    7
 10
28.733025973299479
 20
1.68619159291404
 11
28.88226209153634
 21
1.83542771115089
  0
LINE
  8
_0-0_0
  6
CONTINUOUS
 62
    7
 10
31.230758492350801
 20
4.18392411196535
 11
31.583165379571578
 21
4.536330999186136
  0
LINE
  8
_0-0_0
  6
CONTINUOUS
 62
    7
 10
27.821563264175619
 20
0.7747288837901803
 11
27.970876330799651
 21
0.9240419504141994
  0
LINE
  8
_0-0_0
  6
CONTINUOUS
 62
    7
 10
29.140939308421991
 20
2.270881623333179
 11
29.470570185796088
 21
2.6005125007072829
  0
LINE
  8
_0-0_0
  6
CONTINUOUS
 62
    7
 10
28.622540538739091
 20
1.752482853650279
 11
28.781870388034541
 21
1.9118127029457339
  0
LINE
  8
_0-0_0
  6
CONTINUOUS
 62
    7
 10
31.163167402972671
 20
4.2931097178838664
 11
31.50102671307011
 21
4.6309690279813056
  0
LINE
  8
_0-0_0
  6
CONTINUOUS
 62
    7
 10
27.71731034130838
 20
0.8472526562195703
 11
27.87104949110272
 21
1.00099180601391
  0
LINE
  8
_0-0_0
  6
CONTINUOUS
 62
    7
 10
29.0427300332572
 20
2.349449043465019
 11
29.353830858713408
 21
2.660549868921235
  0
LINE
  8
_0-0_0
  6
CONTINUOUS
 62
    7
 10
28.51994825915613
 20
1.826667269363954
 11
28.681478684532738
 21
1.988197694740571
  0
LINE
  8
_0-0_0
  6
CONTINUOUS
 62
    7
 10
31.088695361601249
 20
4.3954143718090765
 11
31.41888804656865
 21
4.7256070567764707
  0
LINE
  8
_0-0_0
  6
CONTINUOUS
 62
    7
 10
27.615091563053709
 20
0.9218105732615331
 11
27.767936139610061
 21
1.074655149817884
  0
LINE
  8
_0-0_0
  6
CONTINUOUS
 62
    7
 10
28.944520758092398
 20
2.4280164635968568
 11
29.249674470829681
 21
2.7331701763341298
  0
LINE
  8
_0-0_0
  6
CONTINUOUS
 62
    7
 10
28.421738983991328
 20
1.9052346894957941
 11
28.581086981030949
 21
2.0645826865354148
  0
LINE
  8
_0-0_0
  6
CONTINUOUS
 62
    7
 10
30.992872480038599
 20
4.4763681855430537
 11
31.32517631817679
 21
4.8086720236812503
  0
LINE
  8
_0-0_0
  6
CONTINUOUS
 62
    7
 10
27.513252814676288
 20
0.9967485201807592
 11
27.663477183298411
 21
1.146972888802878
  0
LINE
  8
_0-0_0
  6
CONTINUOUS
 62
    7
 10
28.8463114829276
 20
2.506583883728696
 11
29.15244728841651
 21
2.812719689217614
  0
LINE
  8
_0-0_0
  6
CONTINUOUS
 62
    7
 10
28.320839871435488
 20
1.9811122722365919
 11
28.480695277529161
 21
2.140967678330258
  0
LINE
  8
_0-0_0
  6
CONTINUOUS
 62
    7
 10
30.897049598475931
 20
4.5573219992770273
 11
31.22933353157018
 21
4.8896059323712757
  0
LINE
  8
_0-0_0
  6
CONTINUOUS
 62
    7
 10
27.411414066298881
 20
1.071686467099985
 11
27.559018226986758
 21
1.219290627787863
  0
LINE
  8
_0-0_0
  6
CONTINUOUS
 62
    7
 10
28.748102207762798
 20
2.5851513038605338
 11
29.055220106003361
 21
2.8922692021011031
  0
LINE
  8
_0-0_0
  6
CONTINUOUS
 62
    7
 10
28.211764889231179
 20
2.0488139853289228
 11
28.374949548905171
 21
2.2119986450029061
  0
LINE
  8
_0-0_0
  6
CONTINUOUS
 62
    7
 10
30.801226716913259
 20
4.6382758130110026
 11
31.13349074496357
 21
4.9705398410613028
  0
LINE
  8
_0-0_0
  6
CONTINUOUS
 62
    7
 10
27.309575317921471
 20
1.146624414019211
 11
27.454559270675108
 21
1.2916083667728519
  0
LINE
  8
_0-0_0
  6
CONTINUOUS
 62
    7
 10
28.649892932598
 20
2.663718723992376
 11
28.97110351113227
 21
2.9849293025266487
  0
LINE
  8
_0-0_0
  6
CONTINUOUS
 62
    7
 10
28.102689907026878
 20
2.116515698421252
 11
28.268246498590979
 21
2.2820722899853591
  0
LINE
  8
_0-0_0
  6
CONTINUOUS
 62
    7
 10
30.705403835350601
 20
4.719229626744978
 11
31.037647958356959
 21
5.0514737497513308
  0
LINE
  8
_0-0_0
  6
CONTINUOUS
 62
    7
 10
27.20773656954406
 20
1.221562360938438
 11
27.350100314363459
 21
1.36392610575784
  0
LINE
  8
_0-0_0
  6
CONTINUOUS
 62
    7
 10
28.555116073106908
 20
2.7457185597979201
 11
28.88720948624574
 21
3.077811972936745
  0
LINE
  8
_0-0_0
  6
CONTINUOUS
 62
    7
 10
27.994226625367709
 20
2.1848291120587171
 11
28.161543448276798
 21
2.3521459349678091
  0
LINE
  8
_0-0_0
  6
CONTINUOUS
 62
    7
 10
30.60958095378794
 20
4.8001834404789462
 11
30.941805171750349
 21
5.1324076584413553
  0
LINE
  8
_0-0_0
  6
CONTINUOUS
 62
    7
 10
27.105897821166649
 20
1.296500307857662
 11
27.245641358051809
 21
1.4362438447428249
  0
LINE
  8
_0-0_0
  6
CONTINUOUS
 62
    7
 10
28.467638945537448
 20
2.8350181275250849
 11
28.80331546135919
 21
3.1706946433468408
  0
LINE
  8
_0-0_0
  6
CONTINUOUS
 62
    7
 10
27.890240334016741
 20
2.2576195160043899
 11
28.05484039796261
 21
2.422219579950259
  0
LINE
  8
_0-0_0
  6
CONTINUOUS
 62
    7
 10
30.513758072225268
 20
4.8811372542129234
 11
30.845775499400101
 21
5.2131546813877438
  0
LINE
  8
_0-0_0
  6
CONTINUOUS
 62
    7
 10
27.007589450406559
 20
1.3749686323942069
 11
27.14118240174017
 21
1.508561583727813
  0
LINE
  8
_0-0_0
  6
CONTINUOUS
 62
    7
 10
28.380161817967969
 20
2.924317695252252
 11
28.720531156531681
 21
3.264687033815957
  0
LINE
  8
_0-0_0
  6
CONTINUOUS
 62
    7
 10
27.786254042665781
 20
2.330409919950064
 11
27.94813734764843
 21
2.4922932249327089
  0
LINE
  8
_0-0_0
  6
CONTINUOUS
 62
    7
 10
30.41543141598477
 20
4.959587293269049
 11
30.749351847420111
 21
5.293507724704396
  0
LINE
  8
_0-0_0
  6
CONTINUOUS
 62
    7
 10
26.910647391695498
 20
1.4548032689797849
 11
27.036723445428521
 21
1.580879322712799
  0
LINE
  8
_0-0_0
  6
CONTINUOUS
 62
    7
 10
28.292684690398491
 20
3.0136172629794191
 11
28.655939671711749
 21
3.376872244292671
  0
LINE
  8
_0-0_0
  6
CONTINUOUS
 62
    7
 10
27.682267751314821
 20
2.4032003238957408
 11
27.841434297334238
 21
2.562366869915162
  0
LINE
  8
_0-0_0
  6
CONTINUOUS
 62
    7
 10
30.29942170969635
 20
5.020354282277271
 11
30.63901964756813
 21
5.3599522201490508
  0
LINE
  8
_0-0_0
  6
CONTINUOUS
 62
    7
 10
26.791509636293501
 20
1.51244220887442
 11
26.932264489116871
 21
1.6531970616977869
  0
LINE
  8
_0-0_0
  6
CONTINUOUS
 62
    7
 10
28.205207562829031
 20
3.1029168307065861
 11
28.591348186891831
 21
3.4890574547693837
  0
LINE
  8
_0-0_0
  6
CONTINUOUS
 62
    7
 10
27.575485464848611
 20
2.473194732726168
 11
27.73473124702005
 21
2.6324405148976102
  0
LINE
  8
_0-0_0
  6
CONTINUOUS
 62
    7
 10
30.183412003407941
 20
5.081121271285494
 11
30.526383169149031
 21
5.424092437026597
  0
LINE
  8
_0-0_0
  6
CONTINUOUS
 62
    7
 10
26.664115303030161
 20
1.5618245709077169
 11
26.827805532805218
 21
1.725514800682776
  0
LINE
  8
_0-0_0
  6
CONTINUOUS
 62
    7
 10
28.117730435259559
 20
3.192216398433755
 11
28.526756702071899
 21
3.601242665246096
  0
LINE
  8
_0-0_0
  6
CONTINUOUS
 62
    7
 10
27.467651680717668
 20
2.5421376438918579
 11
27.623724241805859
 21
2.6982102049800529
  0
LINE
  8
_0-0_0
  6
CONTINUOUS
 62
    7
 10
30.047059670671959
 20
5.12154563384615
 11
30.413746690729951
 21
5.4882326539041361
  0
LINE
  8
_0-0_0
  6
CONTINUOUS
 62
    7
 10
26.559004835556489
 20
1.6334907987306799
 11
26.71971800613754
 21
1.7942039693117339
  0
LINE
  8
_0-0_0
  6
CONTINUOUS
 62
    7
 10
28.030253307690081
 20
3.281515966160919
 11
28.47515169593759
 21
3.7264143544084151
  0
LINE
  8
_0-0_0
  6
CONTINUOUS
 62
    7
 10
27.359817896586719
 20
2.6110805550575451
 11
27.50771453551744
 21
2.758977193988275
  0
LINE
  8
_0-0_0
  6
CONTINUOUS
 62
    7
 10
29.910600467285071
 20
5.1618631257559091
 11
30.301110212310838
 21
5.5523728707816744
  0
LINE
  8
_0-0_0
  6
CONTINUOUS
 62
    7
 10
26.45389436808281
 20
1.705157026553639
 11
26.6074128114785
 21
1.8586754699493299
  0
LINE
  8
_0-0_0
  6
CONTINUOUS
 62
    7
 10
27.95646079380705
 20
3.384500147574518
 11
28.432296739502028
 21
3.8603360932694998
  0
LINE
  8
_0-0_0
  6
CONTINUOUS
 62
    7
 10
27.251984112455769
 20
2.680023466223234
 11
27.392493703879111
 21
2.820533057646569
  0
LINE
  8
_0-0_0
  6
CONTINUOUS
 62
    7
 10
29.774141263898201
 20
5.2021806176656646
 11
30.188473733891751
 21
5.6165130876592161
  0
LINE
  8
_0-0_0
  6
CONTINUOUS
 62
    7
 10
26.34454189736137
 20
1.7725812511288339
 11
26.495107616819471
 21
1.923146970586925
  0
LINE
  8
_0-0_0
  6
CONTINUOUS
 62
    7
 10
27.884794565984091
 20
3.4896106150481918
 11
28.41786566237344
 21
4.0226817114375403
  0
LINE
  8
_0-0_0
  6
CONTINUOUS
 62
    7
 10
27.144150328324819
 20
2.748966377388923
 11
27.278851542616969
 21
2.8836675916810787
  0
LINE
  8
_0-0_0
  6
CONTINUOUS
 62
    7
 10
29.62358391291579
 20
5.2283999619798873
 11
30.075837255472649
 21
5.6806533045367579
  0
LINE
  8
_0-0_0
  6
CONTINUOUS
 62
    7
 10
26.233061098525649
 20
1.8378771475897539
 11
26.38280242216042
 21
1.987618471224525
  0
LINE
  8
_0-0_0
  6
CONTINUOUS
 62
    7
 10
27.81947409256351
 20
3.601066836924252
 11
28.458136129209858
 21
4.239728873570602
  0
LINE
  8
_0-0_0
  6
CONTINUOUS
 62
    7
 10
27.03631654419388
 20
2.817909288554611
 11
27.165209381354848
 21
2.946802125715596
  0
LINE
  8
_0-0_0
  6
CONTINUOUS
 62
    7
 10
29.41705986921324
 20
5.1986526135739845
 11
29.963200777053561
 21
5.7447935214142979
  0
LINE
  8
_0-0_0
  6
CONTINUOUS
 62
    7
 10
26.121580299689931
 20
1.9031730440506779
 11
26.270497227501369
 21
2.052089971862121
  0
LINE
  8
_0-0_0
  6
CONTINUOUS
 62
    7
 10
27.763532100381031
 20
3.7219015400384058
 11
28.69332311220457
 21
4.651692551861954
  0
LINE
  8
_0-0_0
  6
CONTINUOUS
 62
    7
 10
26.926800673162798
 20
2.8851701128201758
 11
27.05326729062672
 21
3.0116367302841
  0
LINE
  8
_0-0_0
  6
CONTINUOUS
 62
    7
 10
29.015512394037848
 20
4.9738818336952297
 11
29.842139506341748
 21
5.8005089459991303
  0
LINE
  8
_0-0_0
  6
CONTINUOUS
 62
    7
 10
26.01009950085422
 20
1.9684689405115949
 11
26.15819203284234
 21
2.1165614724997148
  0
LINE
  8
_0-0_0
  6
CONTINUOUS
 62
    7
 10
26.795854972943061
 20
2.9310011078970839
 11
26.942781856066318
 21
3.077927991020338
  0
LINE
  8
_0-0_0
  6
CONTINUOUS
 62
    7
 10
27.707590108198548
 20
3.842736243152566
 11
29.70464652111103
 21
5.8397926560650503
  0
LINE
  8
_0-0_0
  6
CONTINUOUS
 62
    7
 10
25.898618702018499
 20
2.033764836972518
 11
26.047750787936369
 21
2.1828969228903858
  0
LINE
  8
_0-0_0
  6
CONTINUOUS
 62
    7
 10
26.670404306030228
 20
2.9823271362808849
 11
26.83229642150593
 21
3.144219251756577
  0
LINE
  8
_0-0_0
  6
CONTINUOUS
 62
    7
 10
27.651648116016069
 20
3.9635709462667199
 11
29.567153535880308
 21
5.8790763661309677
  0
LINE
  8
_0-0_0
  6
CONTINUOUS
 62
    7
 10
25.787137903182781
 20
2.0990607334334359
 11
25.937756399751801
 21
2.249679230002449
  0
LINE
  8
_0-0_0
  6
CONTINUOUS
 62
    7
 10
26.55935227949773
 20
3.0480518050450231
 11
26.721810986945531
 21
3.2105105124928159
  0
LINE
  8
_0-0_0
  6
CONTINUOUS
 62
    7
 10
27.59570612383359
 20
4.08440564938088
 11
29.42966055064959
 21
5.918360076196885
  0
LINE
  8
_0-0_0
  6
CONTINUOUS
 62
    7
 10
25.67565710434707
 20
2.164356629894355
 11
25.827762011567219
 21
2.31646153711451
  0
LINE
  8
_0-0_0
  6
CONTINUOUS
 62
    7
 10
26.448300252965228
 20
3.11377647380916
 11
26.611325552385128
 21
3.2768017732290561
  0
LINE
  8
_0-0_0
  6
CONTINUOUS
 62
    7
 10
27.54365562016386
 20
4.2091318410077889
 11
29.287661584445448
 21
5.9531378052893781
  0
LINE
  8
_0-0_0
  6
CONTINUOUS
 62
    7
 10
25.5623923423984
 20
2.2278685632423238
 11
25.717767623382648
 21
2.3832438442265782
  0
LINE
  8
_0-0_0
  6
CONTINUOUS
 62
    7
 10
26.337248226432731
 20
3.1795011425732888
 11
26.500840117824729
 21
3.343093033965292
  0
LINE
  8
_0-0_0
  6
CONTINUOUS
 62
    7
 10
27.51419283761443
 20
4.3564457537549863
 11
29.11950814257792
 21
5.9617610587184817
  0
LINE
  8
_0-0_0
  6
CONTINUOUS
 62
    7
 10
25.44454121220064
 20
2.2867941283412012
 11
25.607773235198081
 21
2.4500261513386352
  0
LINE
  8
_0-0_0
  6
CONTINUOUS
 62
    7
 10
26.226196199900218
 20
3.2452258113374239
 11
26.39035468326433
 21
3.4093842947015331
  0
LINE
  8
_0-0_0
  6
CONTINUOUS
 62
    7
 10
27.515233907340629
 20
4.5342635187778341
 11
28.951354700710378
 21
5.970384312147587
  0
LINE
  8
_0-0_0
  6
CONTINUOUS
 62
    7
 10
25.32669008200288
 20
2.3457196934400807
 11
25.49777884701351
 21
2.5168084584507011
  0
LINE
  8
_0-0_0
  6
CONTINUOUS
 62
    7
 10
26.114268265982918
 20
3.3100745727167559
 11
26.274651156028369
 21
3.470457462762198
  0
LINE
  8
_0-0_0
  6
CONTINUOUS
 62
    7
 10
27.54123048017837
 20
4.7370367869122098
 11
28.759021677954748
 21
5.9548279846885918
  0
LINE
  8
_0-0_0
  6
CONTINUOUS
 62
    7
 10
25.20883895180512
 20
2.4046452585389599
 11
25.377962119527591
 21
2.5737684262614308
  0
LINE
  8
_0-0_0
  6
CONTINUOUS
 62
    7
 10
25.99304996063665
 20
3.365632962667131
 11
26.155728651919719
 21
3.5283116539501881
  0
LINE
  8
_0-0_0
  6
CONTINUOUS
 62
    7
 10
27.610604538707381
 20
4.9831875407378563
 11
28.49889152718449
 21
5.8714745292149546
  0
LINE
  8
_0-0_0
  6
CONTINUOUS
 62
    7
 10
25.09098782160736
 20
2.463570823637839
 11
25.25596130164682
 21
2.6285443036772928
  0
LINE
  8
_0-0_0
  6
CONTINUOUS
 62
    7
 10
26.41952739381583
 20
3.968887091142939
 11
26.519835274688539
 21
4.069194972015655
  0
LINE
  8
_0-0_0
  6
CONTINUOUS
 62
    7
 10
25.871831655290389
 20
3.4211913526175021
 11
26.03680614781107
 21
3.5861658451381779
  0
LINE
  8
_0-0_0
  6
CONTINUOUS
 62
    7
 10
27.88245619370938
 20
5.4318158910364982
 11
28.06487058432377
 21
5.614230281650884
  0
LINE
  8
_0-0_0
  6
CONTINUOUS
 62
    7
 10
24.9731366914096
 20
2.5224963887367159
 11
25.133960483766038
 21
2.6833201810931539
  0
LINE
  8
_0-0_0
  6
CONTINUOUS
 62
    7
 10
25.76092384866699
 20
3.4870602412907238
 11
25.91788364370242
 21
3.6440200363261681
  0
LINE
  8
_0-0_0
  6
CONTINUOUS
 62
    7
 10
26.297143527841239
 20
4.0232799204649811
 11
26.47331509171574
 21
4.1994514843394883
  0
LINE
  8
_0-0_0
  6
CONTINUOUS
 62
    7
 10
24.85528556121185
 20
2.581421953835596
 11
25.011959665885271
 21
2.7380960585090128
  0
LINE
  8
_0-0_0
  6
CONTINUOUS
 62
    7
 10
25.648321760440378
 20
3.551234848360758
 11
25.798961139593771
 21
3.701874227514156
  0
LINE
  8
_0-0_0
  6
CONTINUOUS
 62
    7
 10
26.174759661866641
 20
4.077672749787025
 11
26.426794908742941
 21
4.3297079966633278
  0
LINE
  8
_0-0_0
  6
CONTINUOUS
 62
    7
 10
24.73743443101409
 20
2.6403475189344729
 11
24.890082360637439
 21
2.7929954485578258
  0
LINE
  8
_0-0_0
  6
CONTINUOUS
 62
    7
 10
25.52193213540961
 20
3.6016219186266318
 11
25.680038635485129
 21
3.759728418702148
  0
LINE
  8
_0-0_0
  6
CONTINUOUS
 62
    7
 10
26.052375795892039
 20
4.1320655791090636
 11
26.373988647659601
 21
4.4536784308766197
  0
LINE
  8
_0-0_0
  6
CONTINUOUS
 62
    7
 10
24.614768269906978
 20
2.6944580531240061
 11
24.76939827057917
 21
2.84908805379618
  0
LINE
  8
_0-0_0
  6
CONTINUOUS
 62
    7
 10
25.406486130317929
 20
3.662952608831588
 11
25.561116131376479
 21
3.8175826098901382
  0
LINE
  8
_0-0_0
  6
CONTINUOUS
 62
    7
 10
25.933418346680788
 20
4.1898848251944489
 11
26.319873332772868
 21
4.5763398112865321
  0
LINE
  8
_0-0_0
  6
CONTINUOUS
 62
    7
 10
24.489984720285828
 20
2.7464511987994861
 11
24.64871418052088
 21
2.9051806590345408
  0
LINE
  8
_0-0_0
  6
CONTINUOUS
 62
    7
 10
25.291040125226249
 20
3.7242832990365459
 11
25.44078833301128
 21
3.874031506821578
  0
LINE
  8
_0-0_0
  6
CONTINUOUS
 62
    7
 10
25.816473763638398
 20
4.2497169374486958
 11
26.265758017886138
 21
4.6990011916964427
  0
LINE
  8
_0-0_0
  6
CONTINUOUS
 62
    7
 10
24.365201170664668
 20
2.798444344474972
 11
24.5280300904626
 21
2.9612732642728949
  0
LINE
  8
_0-0_0
  6
CONTINUOUS
 62
    7
 10
25.699529180596009
 20
4.3095490497029409
 11
26.211642702999419
 21
4.821662572106355
  0
LINE
  8
_0-0_0
  6
CONTINUOUS
 62
    7
 10
25.175594120134569
 20
3.7856139892414981
 11
25.317168266370281
 21
3.9271881354772069
  0
LINE
  8
_0-0_0
  6
CONTINUOUS
 62
    7
 10
26.968841366276958
 20
5.5788612353838926
 11
27.537119672265511
 21
6.1471395413724447
  0
LINE
  8
_0-0_0
  6
CONTINUOUS
 62
    7
 10
24.240417621043519
 20
2.850437490150453
 11
24.40734600040432
 21
3.0173658695112521
  0
LINE
  8
_0-0_0
  6
CONTINUOUS
 62
    7
 10
25.582584597553619
 20
4.3693811619571878
 11
26.157527388112701
 21
4.9443239525162638
  0
LINE
  8
_0-0_0
  6
CONTINUOUS
 62
    7
 10
25.052112899160899
 20
3.838909463564466
 11
25.193548199729271
 21
3.9803447641328411
  0
LINE
  8
_0-0_0
  6
CONTINUOUS
 62
    7
 10
26.717737254820171
 20
5.5045338192237407
 11
27.545958507030338
 21
6.3327550714339135
  0
LINE
  8
_0-0_0
  6
CONTINUOUS
 62
    7
 10
24.116041772168969
 20
2.9028383365725418
 11
24.28666191034603
 21
3.073458474749608
  0
LINE
  8
_0-0_0
  6
CONTINUOUS
 62
    7
 10
25.48227247663609
 20
4.4458457363362953
 11
26.103412073225971
 21
5.0669853329261753
  0
LINE
  8
_0-0_0
  6
CONTINUOUS
 62
    7
 10
24.928369212453251
 20
3.891942472153457
 11
25.069928133088261
 21
4.0335013927884713
  0
LINE
  8
_0-0_0
  6
CONTINUOUS
 62
    7
 10
26.53749434981184
 20
5.5010676095120434
 11
27.509061268886011
 21
6.4726345285862176
  0
LINE
  8
_0-0_0
  6
CONTINUOUS
 62
    7
 10
23.993657906194371
 20
2.9572311658945871
 11
24.16597782028775
 21
3.12955107998796
  0
LINE
  8
_0-0_0
  6
CONTINUOUS
 62
    7
 10
25.419880701825508
 20
4.5602306568223527
 11
26.058825148690761
 21
5.199175103687601
  0
LINE
  8
_0-0_0
  6
CONTINUOUS
 62
    7
 10
24.804625525745599
 20
3.9449754807424479
 11
24.946308066447258
 21
4.0866580214441032
  0
LINE
  8
_0-0_0
  6
CONTINUOUS
 62
    7
 10
26.357251444803498
 20
5.4976013998003443
 11
27.458553641658401
 21
6.598903596655246
  0
LINE
  8
_0-0_0
  6
CONTINUOUS
 62
    7
 10
23.87127404021978
 20
3.0116239952166239
 11
24.04396292487954
 21
3.1843128798763729
  0
LINE
  8
_0-0_0
  6
CONTINUOUS
 62
    7
 10
25.358116571134939
 20
4.6752432214284187
 11
26.03576731886946
 21
5.35289396916294
  0
LINE
  8
_0-0_0
  6
CONTINUOUS
 62
    7
 10
24.680881839037958
 20
3.998008489331438
 11
24.822687999806248
 21
4.139814650099737
  0
LINE
  8
_0-0_0
  6
CONTINUOUS
 62
    7
 10
26.177008539795171
 20
5.4941351900886479
 11
27.408046014430791
 21
6.7251726647242726
  0
LINE
  8
_0-0_0
  6
CONTINUOUS
 62
    7
 10
23.744208970079711
 20
3.061335620373196
 11
23.915618200897029
 21
3.232744851190521
  0
LINE
  8
_0-0_0
  6
CONTINUOUS
 62
    7
 10
24.55713815233032
 20
4.0510414979204298
 11
24.699067933165249
 21
4.192971278755369
  0
LINE
  8
_0-0_0
  6
CONTINUOUS
 62
    7
 10
25.31047462488479
 20
4.8043779704748983
 11
27.329647161388219
 21
6.8235505069783348
  0
LINE
  8
_0-0_0
  6
CONTINUOUS
 62
    7
 10
23.613681991575798
 20
3.1075853371659221
 11
23.787273476914549
 21
3.2811768225046678
  0
LINE
  8
_0-0_0
  6
CONTINUOUS
 62
    7
 10
24.433394465622669
 20
4.1040745065094226
 11
24.575447866524239
 21
4.2461279074110001
  0
LINE
  8
_0-0_0
  6
CONTINUOUS
 62
    7
 10
25.26283267863462
 20
4.9335127195213779
 11
27.250562850334461
 21
6.9212428912212136
  0
LINE
  8
_0-0_0
  6
CONTINUOUS
 62
    7
 10
23.48315501307189
 20
3.1538350539586468
 11
23.658928752932059
 21
3.3296087938188168
  0
LINE
  8
_0-0_0
  6
CONTINUOUS
 62
    7
 10
24.30965077891502
 20
4.1571075150984126
 11
24.45182779988324
 21
4.299284536066632
  0
LINE
  8
_0-0_0
  6
CONTINUOUS
 62
    7
 10
25.215190732384471
 20
5.0626474685678601
 11
27.161943020393479
 21
7.0093997565768741
  0
LINE
  8
_0-0_0
  6
CONTINUOUS
 62
    7
 10
23.352628034567981
 20
3.2000847707513702
 11
23.530584028949569
 21
3.3780407651329609
  0
LINE
  8
_0-0_0
  6
CONTINUOUS
 62
    7
 10
24.185907092207379
 20
4.2101405236874072
 11
24.328207733242241
 21
4.3524411647222631
  0
LINE
  8
_0-0_0
  6
CONTINUOUS
 62
    7
 10
25.167548786134311
 20
5.1917822176143371
 11
27.061551316891691
 21
7.0857847483717133
  0
LINE
  8
_0-0_0
  6
CONTINUOUS
 62
    7
 10
23.222101056064069
 20
3.2463344875440931
 11
23.40457787419178
 21
3.428811305671811
  0
LINE
  8
_0-0_0
  6
CONTINUOUS
 62
    7
 10
25.119906839884148
 20
5.3209169666608175
 11
25.996126914844751
 21
6.197137041621417
  0
LINE
  8
_0-0_0
  6
CONTINUOUS
 62
    7
 10
24.062163405499731
 20
4.263173532276399
 11
24.201816005951169
 21
4.4028261327278421
  0
LINE
  8
_0-0_0
  6
CONTINUOUS
 62
    7
 10
26.237401457592
 20
6.4384115843686711
 11
26.961159613389899
 21
7.162169740166556
  0
LINE
  8
_0-0_0
  6
CONTINUOUS
 62
    7
 10
23.091574077560149
 20
3.2925842043368191
 11
23.282842230459319
 21
3.4838523572359898
  0
LINE
  8
_0-0_0
  6
CONTINUOUS
 62
    7
 10
25.072264893633988
 20
5.4500517157072971
 11
25.804618828273401
 21
6.1824056503467001
  0
LINE
  8
_0-0_0
  6
CONTINUOUS
 62
    7
 10
23.938419718792079
 20
4.3162065408653855
 11
24.074660839158859
 21
4.4524476612321581
  0
LINE
  8
_0-0_0
  6
CONTINUOUS
 62
    7
 10
26.261837031685288
 20
6.6396238537585894
 11
26.8607679098881
 21
7.2385547319613996
  0
LINE
  8
_0-0_0
  6
CONTINUOUS
 62
    7
 10
22.961047099056241
 20
3.338833921129543
 11
23.146860157154211
 21
3.524646979227521
  0
LINE
  8
_0-0_0
  6
CONTINUOUS
 62
    7
 10
25.024622947383829
 20
5.5791864647537758
 11
25.638362926334469
 21
6.19292644370441
  0
LINE
  8
_0-0_0
  6
CONTINUOUS
 62
    7
 10
23.811829152073929
 20
4.3663926694438721
 11
23.947505672366538
 21
4.5020691897364759
  0
LINE
  8
_0-0_0
  6
CONTINUOUS
 62
    7
 10
26.246100705995111
 20
6.8006642233650431
 11
26.760376206386311
 21
7.3149397237562405
  0
LINE
  8
_0-0_0
  6
CONTINUOUS
 62
    7
 10
22.830520120552328
 20
3.3850836379222681
 11
23.011453534047749
 21
3.5660170514176932
  0
LINE
  8
_0-0_0
  6
CONTINUOUS
 62
    7
 10
24.97698100113368
 20
5.7083212138002545
 11
25.495257982522911
 21
6.2265981951894806
  0
LINE
  8
_0-0_0
  6
CONTINUOUS
 62
    7
 10
23.679246630601451
 20
4.4105868432680281
 11
23.820350505574218
 21
4.5516907182407972
  0
LINE
  8
_0-0_0
  6
CONTINUOUS
 62
    7
 10
26.179822420507289
 20
6.9111626331738698
 11
26.658411138479909
 21
7.3897513511464811
  0
LINE
  8
_0-0_0
  6
CONTINUOUS
 62
    7
 10
22.69999314204842
 20
3.4313333547149911
 11
22.877258086523301
 21
3.608598299189877
  0
LINE
  8
_0-0_0
  6
CONTINUOUS
 62
    7
 10
24.92933905488352
 20
5.837455962846735
 11
25.352153038711339
 21
6.260269946674553
  0
LINE
  8
_0-0_0
  6
CONTINUOUS
 62
    7
 10
23.546664109128979
 20
4.454781017092193
 11
23.687815188136259
 21
4.595932096099478
  0
LINE
  8
_0-0_0
  6
CONTINUOUS
 62
    7
 10
26.09382294711974
 20
7.0019398550829521
 11
26.530818281794029
 21
7.4389351897572382
  0
LINE
  8
_0-0_0
  6
CONTINUOUS
 62
    7
 10
22.569466163544511
 20
3.477583071507718
 11
22.743062638998839
 21
3.6511795469620569
  0
LINE
  8
_0-0_0
  6
CONTINUOUS
 62
    7
 10
24.854783400081629
 20
5.9396770033414831
 11
25.220868251159171
 21
6.3057618544190088
  0
LINE
  8
_0-0_0
  6
CONTINUOUS
 62
    7
 10
23.413813780111979
 20
4.4987073833718351
 11
23.555232666663791
 21
4.640126269923634
  0
LINE
  8
_0-0_0
  6
CONTINUOUS
 62
    7
 10
26.004902207735529
 20
7.0897958109953798
 11
26.40322542510815
 21
7.4881190283679952
  0
LINE
  8
_0-0_0
  6
CONTINUOUS
 62
    7
 10
22.438939185040599
 20
3.5238327883004441
 11
22.608867191474388
 21
3.693760794734243
  0
LINE
  8
_0-0_0
  6
CONTINUOUS
 62
    7
 10
23.280825807503511
 20
4.5424961060599917
 11
23.42722183636226
 21
4.6888921349187491
  0
LINE
  8
_0-0_0
  6
CONTINUOUS
 62
    7
 10
24.76639505243332
 20
6.0280653509898032
 11
25.09402085148066
 21
6.3556911500371437
  0
LINE
  8
_0-0_0
  6
CONTINUOUS
 62
    7
 10
22.307236807768749
 20
3.568907106325236
 11
22.47467174394994
 21
3.7363420425064242
  0
LINE
  8
_0-0_0
  6
CONTINUOUS
 62
    7
 10
25.896116549091448
 20
7.157786847647932
 11
26.27563256842227
 21
7.537302866978754
  0
LINE
  8
_0-0_0
  6
CONTINUOUS
 62
    7
 10
19.069916137880529
 20
0.3315864364370212
 11
19.243597104660128
 21
0.5052674032166174
  0
LINE
  8
_0-0_0
  6
CONTINUOUS
 62
    7
 10
23.147837834895021
 20
4.586284828748151
 11
23.29904911912525
 21
4.7374961129783788
  0
LINE
  8
_0-0_0
  6
CONTINUOUS
 62
    7
 10
24.639454327717839
 20
6.0779013215709642
 11
24.96717345180215
 21
6.4056204456552796
  0
LINE
  8
_0-0_0
  6
CONTINUOUS
 62
    7
 10
22.167676258850349
 20
3.606123252703473
 11
22.340476296425478
 21
3.7789232902786071
  0
LINE
  8
_0-0_0
  6
CONTINUOUS
 62
    7
 10
25.780633921070229
 20
7.2190809149233476
 11
26.148039711736391
 21
7.5864867055895128
  0
LINE
  8
_0-0_0
  6
CONTINUOUS
 62
    7
 10
18.86821609764036
 20
0.3066630914934834
 11
19.243597104660121
 21
0.6820440985132538
  0
LINE
  8
_0-0_0
  6
CONTINUOUS
 62
    7
 10
23.014849862286549
 20
4.6300735514363076
 11
23.167270128085949
 21
4.7824938172357054
  0
LINE
  8
_0-0_0
  6
CONTINUOUS
 62
    7
 10
24.50963394210937
 20
6.1248576312591316
 11
24.84032605212365
 21
6.4555497412734119
  0
LINE
  8
_0-0_0
  6
CONTINUOUS
 62
    7
 10
22.028115709931949
 20
3.643339399081714
 11
22.20628084890103
 21
3.8215045380507919
  0
LINE
  8
_0-0_0
  6
CONTINUOUS
 62
    7
 10
25.655029427043668
 20
7.2702531161934267
 11
26.020446855050508
 21
7.6356705442002681
  0
LINE
  8
_0-0_0
  6
CONTINUOUS
 62
    7
 10
18.69564837127935
 20
0.3108720604291156
 11
19.243597104660121
 21
0.8588207938098886
  0
LINE
  8
_0-0_0
  6
CONTINUOUS
 62
    7
 10
22.88186188967807
 20
4.673862274124465
 11
23.03549113704663
 21
4.827491521493032
  0
LINE
  8
_0-0_0
  6
CONTINUOUS
 62
    7
 10
24.379813556500899
 20
6.1718139409472989
 11
24.71347865244515
 21
6.505479036891546
  0
LINE
  8
_0-0_0
  6
CONTINUOUS
 62
    7
 10
21.88855516101356
 20
3.6805555454599527
 11
22.072085401376579
 21
3.864085785822974
  0
LINE
  8
_0-0_0
  6
CONTINUOUS
 62
    7
 10
25.529424933017111
 20
7.3214253174635084
 11
25.892853998364628
 21
7.684854382811026
  0
LINE
  8
_0-0_0
  6
CONTINUOUS
 62
    7
 10
18.523080644918348
 20
0.3150810293647516
 11
19.243597104660121
 21
1.035597489106528
  0
LINE
  8
_0-0_0
  6
CONTINUOUS
 62
    7
 10
22.748873917069591
 20
4.7176509968126207
 11
22.903712146007318
 21
4.8724892257503569
  0
LINE
  8
_0-0_0
  6
CONTINUOUS
 62
    7
 10
24.249993170892448
 20
6.2187702506354689
 11
24.58663125276665
 21
6.555408332509681
  0
LINE
  8
_0-0_0
  6
CONTINUOUS
 62
    7
 10
21.74877813161418
 20
3.7175552113572121
 11
21.937889953852121
 21
3.9066670335951561
  0
LINE
  8
_0-0_0
  6
CONTINUOUS
 62
    7
 10
25.40382043899055
 20
7.3725975187335892
 11
25.765261141678749
 21
7.7340382214217848
  0
LINE
  8
_0-0_0
  6
CONTINUOUS
 62
    7
 10
18.350512918557349
 20
0.3192899983003857
 11
19.243597104660128
 21
1.212374184403165
  0
LINE
  8
_0-0_0
  6
CONTINUOUS
 62
    7
 10
22.615885944461108
 20
4.76143971950078
 11
22.771933154968021
 21
4.9174869300076808
  0
LINE
  8
_0-0_0
  6
CONTINUOUS
 62
    7
 10
24.12705131802657
 20
6.2726050930662458
 11
24.459783853088151
 21
6.6053376281278159
  0
LINE
  8
_0-0_0
  6
CONTINUOUS
 62
    7
 10
21.608575924999598
 20
3.754129700039273
 11
21.80098935378264
 21
3.9465431288223111
  0
LINE
  8
_0-0_0
  6
CONTINUOUS
 62
    7
 10
25.278215944963999
 20
7.4237697200036691
 11
25.637668284992869
 21
7.7832220600325419
  0
LINE
  8
_0-0_0
  6
CONTINUOUS
 62
    7
 10
18.17794519219635
 20
0.32349896723602
 11
19.243597104660128
 21
1.3891508796998
  0
LINE
  8
_0-0_0
  6
CONTINUOUS
 62
    7
 10
22.480404650937359
 20
4.8027351212736721
 11
22.640154163928698
 21
4.9624846342650101
  0
LINE
  8
_0-0_0
  6
CONTINUOUS
 62
    7
 10
24.007467082972969
 20
6.3297975533092749
 11
24.33293645340964
 21
6.6552669237459509
  0
LINE
  8
_0-0_0
  6
CONTINUOUS
 62
    7
 10
21.46837371838502
 20
3.7907041887213361
 11
21.653675441035439
 21
3.976005911371752
  0
LINE
  8
_0-0_0
  6
CONTINUOUS
 62
    7
 10
25.152611450937438
 20
7.4749419212737455
 11
25.51007542830699
 21
7.8324058986432998
  0
LINE
  8
_0-0_0
  6
CONTINUOUS
 62
    7
 10
18.005377465835341
 20
0.3277079361716542
 11
19.243597104660121
 21
1.565927574996438
  0
LINE
  8
_0-0_0
  6
CONTINUOUS
 62
    7
 10
22.911684196313061
 20
5.4107913619460026
 11
23.139716907968018
 21
5.6388240736009693
  0
LINE
  8
_0-0_0
  6
CONTINUOUS
 62
    7
 10
22.3413016775892
 20
4.8404088432221339
 11
22.50837517288939
 21
5.007482338522335
  0
LINE
  8
_0-0_0
  6
CONTINUOUS
 62
    7
 10
23.879363259444051
 20
6.3784704250769888
 11
24.206082844200121
 21
6.7051900098330721
  0
LINE
  8
_0-0_0
  6
CONTINUOUS
 62
    7
 10
21.32817151177046
 20
3.8272786774033988
 11
21.506361528288248
 21
4.005468693921192
  0
LINE
  8
_0-0_0
  6
CONTINUOUS
 62
    7
 10
25.027006956910881
 20
7.5261141225438237
 11
25.38248257162111
 21
7.8815897372540568
  0
LINE
  8
_0-0_0
  6
CONTINUOUS
 62
    7
 10
17.899483812488441
 20
0.3985909781213852
 11
19.243597104660128
 21
1.742704270293073
  0
LINE
  8
_0-0_0
  6
CONTINUOUS
 62
    7
 10
22.77073997303675
 20
5.4466238339663402
 11
23.268899877607879
 21
5.9447837385374588
  0
LINE
  8
_0-0_0
  6
CONTINUOUS
 62
    7
 10
22.202198704241009
 20
4.8780825651705983
 11
22.376596181850068
 21
5.052480042779659
  0
LINE
  8
_0-0_0
  6
CONTINUOUS
 62
    7
 10
23.73898176612025
 20
6.4148656270498269
 11
24.078639180149071
 21
6.754523041078646
  0
LINE
  8
_0-0_0
  6
CONTINUOUS
 62
    7
 10
21.185181640018118
 20
3.8610655009476979
 11
21.359047615541051
 21
4.0349314764706303
  0
LINE
  8
_0-0_0
  6
CONTINUOUS
 62
    7
 10
24.90140246288433
 20
7.5772863238139054
 11
25.254889714935238
 21
7.9307735758648156
  0
LINE
  8
_0-0_0
  6
CONTINUOUS
 62
    7
 10
17.874528800862229
 20
0.5504126617918316
 11
19.243597104660121
 21
1.9194809655897109
  0
LINE
  8
_0-0_0
  6
CONTINUOUS
 62
    7
 10
22.638157451564278
 20
5.490818007790498
 11
23.425836644662318
 21
6.2784972008885393
  0
LINE
  8
_0-0_0
  6
CONTINUOUS
 62
    7
 10
22.06309573089284
 20
4.9157562871190627
 11
22.23205144001815
 21
5.084711996244362
  0
LINE
  8
_0-0_0
  6
CONTINUOUS
 62
    7
 10
23.58347303014759
 20
6.4361335863738027
 11
23.951195516098
 21
6.8038560723242191
  0
LINE
  8
_0-0_0
  6
CONTINUOUS
 62
    7
 10
21.039148717816541
 20
3.8918092740427669
 11
21.21173370279385
 21
4.0643942590200712
  0
LINE
  8
_0-0_0
  6
CONTINUOUS
 62
    7
 10
24.77591992788545
 20
7.6285804841116728
 11
25.127296858249358
 21
7.9799574144755753
  0
LINE
  8
_0-0_0
  6
CONTINUOUS
 62
    7
 10
17.867729697196988
 20
0.720390253423215
 11
19.243597104660128
 21
2.0962576608863487
  0
LINE
  8
_0-0_0
  6
CONTINUOUS
 62
    7
 10
21.919660149694401
 20
4.9490974012172568
 11
22.085753485289888
 21
5.115190736812746
  0
LINE
  8
_0-0_0
  6
CONTINUOUS
 62
    7
 10
22.5055749300918
 20
5.5350121816146566
 11
23.831907540320958
 21
6.8613447918438117
  0
LINE
  8
_0-0_0
  6
CONTINUOUS
 62
    7
 10
20.90339901368091
 20
3.9328362652037709
 11
21.06441979004666
 21
4.0938570415695085
  0
LINE
  8
_0-0_0
  6
CONTINUOUS
 62
    7
 10
24.650465498965271
 20
7.6799027504881118
 11
24.999704001563479
 21
8.0291412530863315
  0
LINE
  8
_0-0_0
  6
CONTINUOUS
 62
    7
 10
17.86093059353174
 20
0.8903678450545946
 11
19.243597104660128
 21
2.2730343561829848
  0
LINE
  8
_0-0_0
  6
CONTINUOUS
 62
    7
 10
21.768137268011571
 20
4.9743512148310653
 11
21.951032675908429
 21
5.157246622727925
  0
LINE
  8
_0-0_0
  6
CONTINUOUS
 62
    7
 10
22.372992408619328
 20
5.5792063554388162
 11
23.76107010263065
 21
6.9672840494501375
  0
LINE
  8
_0-0_0
  6
CONTINUOUS
 62
    7
 10
20.7529648605387
 20
3.9591788073581981
 11
20.917105877299459
 21
4.1233198241189459
  0
LINE
  8
_0-0_0
  6
CONTINUOUS
 62
    7
 10
24.525011070045071
 20
7.7312250168645579
 11
24.872111144877599
 21
8.0783250916970921
  0
LINE
  8
_0-0_0
  6
CONTINUOUS
 62
    7
 10
17.85499744997864
 20
1.0612113967981349
 11
19.243597104660121
 21
2.4498110514796218
  0
LINE
  8
_0-0_0
  6
CONTINUOUS
 62
    7
 10
21.63463650640724
 20
5.0176271485233669
 11
21.816555491576778
 21
5.1995461336929107
  0
LINE
  8
_0-0_0
  6
CONTINUOUS
 62
    7
 10
22.241292435952889
 20
5.624283078069018
 11
23.79820361409919
 21
7.181194256215317
  0
LINE
  8
_0-0_0
  6
CONTINUOUS
 62
    7
 10
20.599103662780521
 20
3.9820943048966488
 11
20.769791964552261
 21
4.1527826066683859
  0
LINE
  8
_0-0_0
  6
CONTINUOUS
 62
    7
 10
24.39955664112487
 20
7.7825472832409978
 11
24.74451828819172
 21
8.1275089303078491
  0
LINE
  8
_0-0_0
  6
CONTINUOUS
 62
    7
 10
17.852176545266459
 20
1.23516718738259
 11
19.242892402569371
 21
2.625883044685497
  0
LINE
  8
_0-0_0
  6
CONTINUOUS
 62
    7
 10
21.496312228195481
 20
5.0560795656082584
 11
21.663884709275141
 21
5.2236520466879081
  0
LINE
  8
_0-0_0
  6
CONTINUOUS
 62
    7
 10
22.15290408830457
 20
5.7126714257173381
 11
23.922602029307931
 21
7.4823693667206958
  0
LINE
  8
_0-0_0
  6
CONTINUOUS
 62
    7
 10
20.445242465022339
 20
4.0050098024351026
 11
20.620302728943201
 21
4.180070066355964
  0
LINE
  8
_0-0_0
  6
CONTINUOUS
 62
    7
 10
24.250979171833279
 20
7.8107465092460479
 11
24.616925431505841
 21
8.1766927689186061
  0
LINE
  8
_0-0_0
  6
CONTINUOUS
 62
    7
 10
17.849355640554279
 20
1.4091229779670459
 11
19.242096111149109
 21
2.80186344856188
  0
LINE
  8
_0-0_0
  6
CONTINUOUS
 62
    7
 10
21.354479763364469
 20
5.0910237960738751
 11
21.523295378753861
 21
5.259839411463262
  0
LINE
  8
_0-0_0
  6
CONTINUOUS
 62
    7
 10
20.293784320531809
 20
4.030328353241213
 11
20.463167888679521
 21
4.1997119213889257
  0
LINE
  8
_0-0_0
  6
CONTINUOUS
 62
    7
 10
22.232490666432081
 20
5.9690346991414777
 11
24.487350586762751
 21
8.2238946194721602
  0
LINE
  8
_0-0_0
  6
CONTINUOUS
 62
    7
 10
17.846534735842098
 20
1.583078768551503
 11
19.241299819728858
 21
2.9778438524382631
  0
LINE
  8
_0-0_0
  6
CONTINUOUS
 62
    7
 10
21.21264729853344
 20
5.1259680265394846
 11
21.392349678534131
 21
5.305670406540166
  0
LINE
  8
_0-0_0
  6
CONTINUOUS
 62
    7
 10
20.150679376720251
 20
4.0640001047262881
 11
20.306033048415841
 21
4.2193537764218831
  0
LINE
  8
_0-0_0
  6
CONTINUOUS
 62
    7
 10
22.346540147268619
 20
6.259860875274656
 11
24.356193683800729
 21
8.2695144118067727
  0
LINE
  8
_0-0_0
  6
CONTINUOUS
 62
    7
 10
17.843713831129921
 20
1.7570345591359579
 11
19.2405035283086
 21
3.153824256314643
  0
LINE
  8
_0-0_0
  6
CONTINUOUS
 62
    7
 10
21.070814833702421
 20
5.1609122570050978
 11
21.24939379730851
 21
5.339491220611185
  0
LINE
  8
_0-0_0
  6
CONTINUOUS
 62
    7
 10
19.991441300904618
 20
4.0815387242073013
 11
20.148898208152161
 21
4.238995631454844
  0
LINE
  8
_0-0_0
  6
CONTINUOUS
 62
    7
 10
22.462644290394209
 20
6.5527417136968839
 11
24.231601705307181
 21
8.3216991286098451
  0
LINE
  8
_0-0_0
  6
CONTINUOUS
 62
    7
 10
17.84089292641773
 20
1.930990349720415
 11
19.239707236888339
 21
3.329804660191026
  0
LINE
  8
_0-0_0
  6
CONTINUOUS
 62
    7
 10
20.928982368871398
 20
5.1958564874707127
 11
21.102635786118838
 21
5.369509904718158
  0
LINE
  8
_0-0_0
  6
CONTINUOUS
 62
    7
 10
19.834172401344371
 20
4.1010465199436838
 11
20.022144971216288
 21
4.289019089815607
  0
LINE
  8
_0-0_0
  6
CONTINUOUS
 62
    7
 10
22.58239624527258
 20
6.849270363871887
 11
24.11200824885671
 21
8.3788823674560291
  0
LINE
  8
_0-0_0
  6
CONTINUOUS
 62
    7
 10
17.83807202170556
 20
2.1049461403048708
 11
19.238910945468088
 21
3.5057850640674059
  0
LINE
  8
_0-0_0
  6
CONTINUOUS
 62
    7
 10
20.787149904040379
 20
5.2308007179363311
 11
20.955877774929181
 21
5.3995285888251327
  0
LINE
  8
_0-0_0
  6
CONTINUOUS
 62
    7
 10
19.712643993866588
 20
4.1562948077625403
 11
19.935677265772948
 21
4.3793280796689
  0
LINE
  8
_0-0_0
  6
CONTINUOUS
 62
    7
 10
22.705479388452339
 20
7.1491302023482949
 11
23.988264562149069
 21
8.4319153760450191
  0
LINE
  8
_0-0_0
  6
CONTINUOUS
 62
    7
 10
17.835251116993369
 20
2.278901930889329
 11
19.23811465404783
 21
3.681765467943789
  0
LINE
  8
_0-0_0
  6
CONTINUOUS
 62
    7
 10
20.6139250039943
 20
5.2343525131868888
 11
20.811931892846569
 21
5.432359402039153
  0
LINE
  8
_0-0_0
  6
CONTINUOUS
 62
    7
 10
21.276208184056141
 20
5.8966356932487311
 11
21.385389527884768
 21
6.0058170370773611
  0
LINE
  8
_0-0_0
  6
CONTINUOUS
 62
    7
 10
19.66772707319075
 20
4.288154582383342
 11
19.891753370117978
 21
4.5121808793105682
  0
LINE
  8
_0-0_0
  6
CONTINUOUS
 62
    7
 10
22.836425088672079
 20
7.4568525978646675
 11
23.861243298067478
 21
8.4816708072600661
  0
LINE
  8
_0-0_0
  6
CONTINUOUS
 62
    7
 10
17.832430212281188
 20
2.4528577214737841
 11
19.237318362627569
 21
3.8577458718201689
  0
LINE
  8
_0-0_0
  6
CONTINUOUS
 62
    7
 10
20.452635431819281
 20
5.2498396363085051
 11
20.677244886906269
 21
5.4744490913954981
  0
LINE
  8
_0-0_0
  6
CONTINUOUS
 62
    7
 10
19.669291468724349
 20
4.4664956732135774
 11
19.8945593494084
 21
4.691763553897629
  0
LINE
  8
_0-0_0
  6
CONTINUOUS
 62
    7
 10
21.120931357106389
 20
5.9181355615956166
 11
21.415408211991749
 21
6.212612416480975
  0
LINE
  8
_0-0_0
  6
CONTINUOUS
 62
    7
 10
17.829609307569011
 20
2.6268135120582409
 11
19.236522071207321
 21
4.0337262756965532
  0
LINE
  8
_0-0_0
  6
CONTINUOUS
 62
    7
 10
22.95062938104008
 20
7.747833585529305
 11
23.726556292127188
 21
8.5237604966164113
  0
LINE
  8
_0-0_0
  6
CONTINUOUS
 62
    7
 10
15.55039949974974
 20
0.347603704238967
 11
15.667769769808849
 21
0.4649739742980837
  0
LINE
  8
_0-0_0
  6
CONTINUOUS
 62
    7
 10
20.317948425878988
 20
5.2919293256648458
 11
20.524562965974158
 21
5.4985438657600207
  0
LINE
  8
_0-0_0
  6
CONTINUOUS
 62
    7
 10
19.670855864257948
 20
4.6448367640438128
 11
19.897365328698821
 21
4.871346228484688
  0
LINE
  8
_0-0_0
  6
CONTINUOUS
 62
    7
 10
20.965654530156641
 20
5.9396354299425073
 11
21.445426896098719
 21
6.4194077958845854
  0
LINE
  8
_0-0_0
  6
CONTINUOUS
 62
    7
 10
17.826788402856831
 20
2.8007693026426991
 11
19.23572577978707
 21
4.2097066795729354
  0
LINE
  8
_0-0_0
  6
CONTINUOUS
 62
    7
 10
23.048161350858908
 20
8.022142250644773
 11
23.60296893884896
 21
8.576949838634821
  0
LINE
  8
_0-0_0
  6
CONTINUOUS
 62
    7
 10
15.359289558888509
 20
0.3332704586743747
 11
15.667769769808849
 21
0.6417506695947192
  0
LINE
  8
_0-0_0
  6
CONTINUOUS
 62
    7
 10
20.15511786172345
 20
5.305875456805948
 11
20.368341700363181
 21
5.5190992954456747
  0
LINE
  8
_0-0_0
  6
CONTINUOUS
 62
    7
 10
19.67242025979155
 20
4.82317785487405
 11
19.90017130798925
 21
5.0509289030717487
  0
LINE
  8
_0-0_0
  6
CONTINUOUS
 62
    7
 10
20.810377703206899
 20
5.9611352982893919
 11
21.4754455802057
 21
6.6262031752881958
  0
LINE
  8
_0-0_0
  6
CONTINUOUS
 62
    7
 10
17.82396749814465
 20
2.9747250932271529
 11
19.234929488366809
 21
4.3856870834493157
  0
LINE
  8
_0-0_0
  6
CONTINUOUS
 62
    7
 10
23.16801671028779
 20
8.3187743053702902
 11
23.476293121018279
 21
8.6270507161007827
  0
LINE
  8
_0-0_0
  6
CONTINUOUS
 62
    7
 10
15.168179618027279
 20
0.3189372131097822
 11
15.667769769808849
 21
0.8185273648913564
  0
LINE
  8
_0-0_0
  6
CONTINUOUS
 62
    7
 10
19.673984655325149
 20
5.0015189457042836
 11
20.2121204347522
 21
5.5396547251313332
  0
LINE
  8
_0-0_0
  6
CONTINUOUS
 62
    7
 10
20.65510087625714
 20
5.98263516663628
 11
21.526085633482608
 21
6.853619923861741
  0
LINE
  8
_0-0_0
  6
CONTINUOUS
 62
    7
 10
17.821146593432469
 20
3.148680883811608
 11
19.234133196946558
 21
4.5616674873256988
  0
LINE
  8
_0-0_0
  6
CONTINUOUS
 62
    7
 10
23.318441681783749
 20
8.6459759721628888
 11
23.328979208271089
 21
8.6565134986502201
  0
LINE
  8
_0-0_0
  6
CONTINUOUS
 62
    7
 10
14.995578402079029
 20
0.3231126924581725
 11
15.667769769808849
 21
0.9953040601879938
  0
LINE
  8
_0-0_0
  6
CONTINUOUS
 62
    7
 10
19.675549050858748
 20
5.1798600365345208
 11
20.051180919806139
 21
5.5554919054819107
  0
LINE
  8
_0-0_0
  6
CONTINUOUS
 62
    7
 10
17.820323724669979
 20
3.324634710345756
 11
19.2333369055263
 21
4.7376478912020791
  0
LINE
  8
_0-0_0
  6
CONTINUOUS
 62
    7
 10
20.50589200987769
 20
6.0102029955534677
 11
21.576102686184668
 21
7.0804136718604366
  0
LINE
  8
_0-0_0
  6
CONTINUOUS
 62
    7
 10
14.824897454896069
 20
0.3292084405718487
 11
15.667769769808849
 21
1.172080755484629
  0
LINE
  8
_0-0_0
  6
CONTINUOUS
 62
    7
 10
19.67711344639235
 20
5.3582011273647571
 11
19.890117708535868
 21
5.571205389508278
  0
LINE
  8
_0-0_0
  6
CONTINUOUS
 62
    7
 10
17.819971626882779
 20
3.5010593078551908
 11
19.232540614106049
 21
4.9136282950784613
  0
LINE
  8
_0-0_0
  6
CONTINUOUS
 62
    7
 10
20.375635497553858
 20
6.0567231785262709
 11
21.619763636925409
 21
7.3008513178978171
  0
LINE
  8
_0-0_0
  6
CONTINUOUS
 62
    7
 10
14.740317348206659
 20
0.4214050291790709
 11
15.667769769808849
 21
1.348857450781268
  0
LINE
  8
_0-0_0
  6
CONTINUOUS
 62
    7
 10
19.678677841925939
 20
5.5365422181949925
 11
19.7290544972656
 21
5.586918873534648
  0
LINE
  8
_0-0_0
  6
CONTINUOUS
 62
    7
 10
17.8121148848696
 20
3.6699792611386459
 11
19.23183451474285
 21
5.0896988910118983
  0
LINE
  8
_0-0_0
  6
CONTINUOUS
 62
    7
 10
20.346989324589291
 20
6.2048537008583366
 11
21.657985625097648
 21
7.5158500013666973
  0
LINE
  8
_0-0_0
  6
CONTINUOUS
 62
    7
 10
14.73751972270705
 20
0.5953840989761056
 11
15.667769769808849
 21
1.525634146077903
  0
LINE
  8
_0-0_0
  6
CONTINUOUS
 62
    7
 10
17.804258142856419
 20
3.8388992144221001
 11
19.23183451474285
 21
5.2664755863085348
  0
LINE
  8
_0-0_0
  6
CONTINUOUS
 62
    7
 10
20.38842136254944
 20
6.4230624341151223
 11
21.696207613269901
 21
7.730848684835581
  0
LINE
  8
_0-0_0
  6
CONTINUOUS
 62
    7
 10
14.73649195122277
 20
0.7711330227884598
 11
15.667769769808849
 21
1.70241084137454
  0
LINE
  8
_0-0_0
  6
CONTINUOUS
 62
    7
 10
17.793819964893888
 20
4.0052377317562157
 11
19.23183451474285
 21
5.4432522816051731
  0
LINE
  8
_0-0_0
  6
CONTINUOUS
 62
    7
 10
20.429853400509589
 20
6.6412711673719071
 11
21.745238467852608
 21
7.9566562347149281
  0
LINE
  8
_0-0_0
  6
CONTINUOUS
 62
    7
 10
14.735464179738489
 20
0.946881946600814
 11
15.667769769808849
 21
1.8791875366711781
  0
LINE
  8
_0-0_0
  6
CONTINUOUS
 62
    7
 10
17.73218960377272
 20
4.1203840659316783
 11
19.23183451474285
 21
5.6200289769018079
  0
LINE
  8
_0-0_0
  6
CONTINUOUS
 62
    7
 10
20.471285438469731
 20
6.859479900628691
 11
21.783460456024858
 21
8.1716549181838118
  0
LINE
  8
_0-0_0
  6
CONTINUOUS
 62
    7
 10
14.7344364082542
 20
1.1226308704131668
 11
15.667769769808849
 21
2.0559642319678128
  0
LINE
  8
_0-0_0
  6
CONTINUOUS
 62
    7
 10
17.621704169212321
 20
4.1866753266679186
 11
19.23183451474285
 21
5.7968056721984488
  0
LINE
  8
_0-0_0
  6
CONTINUOUS
 62
    7
 10
20.513115653480419
 20
7.0780868109360159
 11
21.82551902448138
 21
8.3904901819369737
  0
LINE
  8
_0-0_0
  6
CONTINUOUS
 62
    7
 10
14.733408636769919
 20
1.2983797942255239
 11
15.66837651579063
 21
2.233347673246226
  0
LINE
  8
_0-0_0
  6
CONTINUOUS
 62
    7
 10
17.444585305571759
 20
4.1863331583239951
 11
19.23183451474285
 21
5.9735823674950871
  0
LINE
  8
_0-0_0
  6
CONTINUOUS
 62
    7
 10
20.556115390174198
 20
7.2978632429264278
 11
21.918726184772069
 21
8.6604740375243025
  0
LINE
  8
_0-0_0
  6
CONTINUOUS
 62
    7
 10
14.732380865285639
 20
1.474128718037875
 11
15.6707653900514
 21
2.4125132428036302
  0
LINE
  8
_0-0_0
  6
CONTINUOUS
 62
    7
 10
17.266645605700798
 20
4.1851701537496728
 11
19.23183451474286
 21
6.1503590627917219
  0
LINE
  8
_0-0_0
  6
CONTINUOUS
 62
    7
 10
20.599115126867971
 20
7.5176396749168432
 11
21.94524268906656
 21
8.8637672371154323
  0
LINE
  8
_0-0_0
  6
CONTINUOUS
 62
    7
 10
14.731353093801359
 20
1.6498776418502298
 11
15.673154264312159
 21
2.5916788123610339
  0
LINE
  8
_0-0_0
  6
CONTINUOUS
 62
    7
 10
17.088705905829851
 20
4.1840071491753532
 11
19.23183451474285
 21
6.3271357580883602
  0
LINE
  8
_0-0_0
  6
CONTINUOUS
 62
    7
 10
20.642400459607859
 20
7.7377017029533616
 11
21.885246555592299
 21
8.9805477989378008
  0
LINE
  8
_0-0_0
  6
CONTINUOUS
 62
    7
 10
14.73032532231708
 20
1.825626565662584
 11
15.67554313857293
 21
2.770844381918438
  0
LINE
  8
_0-0_0
  6
CONTINUOUS
 62
    7
 10
16.910766205958889
 20
4.1828441446010353
 11
19.230932137772871
 21
6.5030100764150118
  0
LINE
  8
_0-0_0
  6
CONTINUOUS
 62
    7
 10
20.685760781095709
 20
7.9578387197378468
 11
21.737932642845098
 21
9.0100105814872382
  0
LINE
  8
_0-0_0
  6
CONTINUOUS
 62
    7
 10
14.7292975508328
 20
2.0013754894749391
 11
15.6779320128337
 21
2.9500099514758391
  0
LINE
  8
_0-0_0
  6
CONTINUOUS
 62
    7
 10
16.732826506087931
 20
4.181681140026713
 11
19.229691599560261
 21
6.678546233499043
  0
LINE
  8
_0-0_0
  6
CONTINUOUS
 62
    7
 10
20.729121102583558
 20
8.1779757365223435
 11
21.590618730097901
 21
9.0394733640366791
  0
LINE
  8
_0-0_0
  6
CONTINUOUS
 62
    7
 10
14.72826977934851
 20
2.1771244132872928
 11
15.678508657528649
 21
3.12736329146743
  0
LINE
  8
_0-0_0
  6
CONTINUOUS
 62
    7
 10
16.55488680621697
 20
4.1805181354523925
 11
19.228451061347648
 21
6.8540823905830707
  0
LINE
  8
_0-0_0
  6
CONTINUOUS
 62
    7
 10
20.772481424071418
 20
8.3981127533068331
 11
21.443304817350711
 21
9.0689361465861182
  0
LINE
  8
_0-0_0
  6
CONTINUOUS
 62
    7
 10
14.72724200786423
 20
2.352873337099647
 11
15.67540731199713
 21
3.301038641232548
  0
LINE
  8
_0-0_0
  6
CONTINUOUS
 62
    7
 10
16.376947106346019
 20
4.1793551308780747
 11
19.227210523135038
 21
7.0296185476670975
  0
LINE
  8
_0-0_0
  6
CONTINUOUS
 62
    7
 10
20.815841745559279
 20
8.618249770091328
 11
21.29599090460351
 21
9.0983989291355591
  0
LINE
  8
_0-0_0
  6
CONTINUOUS
 62
    7
 10
14.726244364953959
 20
2.528652389486012
 11
15.672305966465609
 21
3.4747139909976629
  0
LINE
  8
_0-0_0
  6
CONTINUOUS
 62
    7
 10
17.731430970963689
 20
5.710615690792383
 11
19.225969984922439
 21
7.205154704751127
  0
LINE
  8
_0-0_0
  6
CONTINUOUS
 62
    7
 10
16.199007406475061
 20
4.1781921263037542
 11
17.684226517697378
 21
5.6634112375260743
  0
LINE
  8
_0-0_0
  6
CONTINUOUS
 62
    7
 10
20.859202067047128
 20
8.8383867868758194
 11
21.148676991856309
 21
9.1278617116849982
  0
LINE
  8
_0-0_0
  6
CONTINUOUS
 62
    7
 10
14.72527306443035
 20
2.70445778425904
 11
15.66920462093409
 21
3.6483893407627809
  0
LINE
  8
_0-0_0
  6
CONTINUOUS
 62
    7
 10
17.79686696497545
 20
5.952828380100775
 11
19.224729446709829
 21
7.3806908618351556
  0
LINE
  8
_0-0_0
  6
CONTINUOUS
 62
    7
 10
16.02106770660411
 20
4.1770291217294319
 11
17.4665565653316
 21
5.6225179804569291
  0
LINE
  8
_0-0_0
  6
CONTINUOUS
 62
    7
 10
20.902562388534988
 20
9.0585238036603108
 11
20.979829012697209
 21
9.1357904278225383
  0
LINE
  8
_0-0_0
  6
CONTINUOUS
 62
    7
 10
14.724301763906739
 20
2.8802631790320711
 11
15.685040711837649
 21
3.841002126962973
  0
LINE
  8
_0-0_0
  6
CONTINUOUS
 62
    7
 10
15.843128006733149
 20
4.175866117155115
 11
17.295543003674868
 21
5.6282811140968336
  0
LINE
  8
_0-0_0
  6
CONTINUOUS
 62
    7
 10
17.81046517230596
 20
6.1432032827279243
 11
19.22348890849722
 21
7.5562270189191869
  0
LINE
  8
_0-0_0
  6
CONTINUOUS
 62
    7
 10
14.723330463383129
 20
3.0560685738050969
 11
15.753789824302829
 21
4.0865279347248
  0
LINE
  8
_0-0_0
  6
CONTINUOUS
 62
    7
 10
17.82406337963647
 20
6.3335781853550709
 11
19.222248370284621
 21
7.7317631760032172
  0
LINE
  8
_0-0_0
  6
CONTINUOUS
 62
    7
 10
14.722359162859529
 20
3.231873968578129
 11
17.130957804605589
 21
5.6404726103241911
  0
LINE
  8
_0-0_0
  6
CONTINUOUS
 62
    7
 10
17.830665166725758
 20
6.5169566677409962
 11
19.221007832072
 21
7.907299333087244
  0
LINE
  8
_0-0_0
  6
CONTINUOUS
 62
    7
 10
14.72138786233592
 20
3.4076793633511561
 11
16.96637260553631
 21
5.652664106551545
  0
LINE
  8
_0-0_0
  6
CONTINUOUS
 62
    7
 10
17.827198957014058
 20
6.6902671533259336
 11
19.219767293859401
 21
8.0828354901712735
  0
LINE
  8
_0-0_0
  6
CONTINUOUS
 62
    7
 10
14.72041656181231
 20
3.583484758124185
 11
16.80178740646702
 21
5.6648556027788981
  0
LINE
  8
_0-0_0
  6
CONTINUOUS
 62
    7
 10
17.823732747302358
 20
6.8635776389108729
 11
19.218526755646788
 21
8.2583716472553021
  0
LINE
  8
_0-0_0
  6
CONTINUOUS
 62
    7
 10
14.719445261288699
 20
3.759290152897214
 11
16.629723448517509
 21
5.6695683401260259
  0
LINE
  8
_0-0_0
  6
CONTINUOUS
 62
    7
 10
17.820209350511341
 20
7.0368309374164903
 11
19.217286217434178
 21
8.4339078043393307
  0
LINE
  8
_0-0_0
  6
CONTINUOUS
 62
    7
 10
14.71847396076509
 20
3.9350955476702429
 11
16.452946753220878
 21
5.6695683401260268
  0
LINE
  8
_0-0_0
  6
CONTINUOUS
 62
    7
 10
17.813276931087941
 20
7.2066752132897269
 11
19.216045679221569
 21
8.6094439614233611
  0
LINE
  8
_0-0_0
  6
CONTINUOUS
 62
    7
 10
14.71750266024148
 20
4.1109009424432709
 11
16.27617005792424
 21
5.6695683401260259
  0
LINE
  8
_0-0_0
  6
CONTINUOUS
 62
    7
 10
17.806344511664548
 20
7.3765194891629732
 11
19.214805141008959
 21
8.7849801185073914
  0
LINE
  8
_0-0_0
  6
CONTINUOUS
 62
    7
 10
14.71653135971788
 20
4.286706337216299
 11
16.099393362627598
 21
5.6695683401260259
  0
LINE
  8
_0-0_0
  6
CONTINUOUS
 62
    7
 10
17.799412092241148
 20
7.5463637650362134
 11
19.21356460279636
 21
8.96051627559142
  0
LINE
  8
_0-0_0
  6
CONTINUOUS
 62
    7
 10
14.71556005919427
 20
4.4625117319893288
 11
15.92261666733097
 21
5.6695683401260259
  0
LINE
  8
_0-0_0
  6
CONTINUOUS
 62
    7
 10
17.796798544835439
 20
7.7205269129271316
 11
19.21232406458375
 21
9.1360524326754468
  0
LINE
  8
_0-0_0
  6
CONTINUOUS
 62
    7
 10
14.714999986509669
 20
4.6387283546013629
 11
15.784812697511689
 21
5.7085410656033888
  0
LINE
  8
_0-0_0
  6
CONTINUOUS
 62
    7
 10
14.714999986509669
 20
4.815505049898002
 11
15.70077665143358
 21
5.8012817148219149
  0
LINE
  8
_0-0_0
  6
CONTINUOUS
 62
    7
 10
17.799396084126779
 20
7.8999011475151172
 11
19.21108352637114
 21
9.3115885897594754
  0
LINE
  8
_0-0_0
  6
CONTINUOUS
 62
    7
 10
13.96912137540173
 20
4.069626438790066
 11
14.24449638981871
 21
4.3450014532070442
  0
LINE
  8
_0-0_0
  6
CONTINUOUS
 62
    7
 10
14.714999986509669
 20
4.9922817451946368
 11
15.68644340586899
 21
5.963725164553959
  0
LINE
  8
_0-0_0
  6
CONTINUOUS
 62
    7
 10
17.804048102424058
 20
8.0813298611090331
 11
19.209842988158531
 21
9.487124746843504
  0
LINE
  8
_0-0_0
  6
CONTINUOUS
 62
    7
 10
13.76796168765038
 20
4.0452434463353572
 11
14.247742938691549
 21
4.5250246973765211
  0
LINE
  8
_0-0_0
  6
CONTINUOUS
 62
    7
 10
14.714999986509669
 20
5.169058440491276
 11
15.67211016030439
 21
6.1261686142860041
  0
LINE
  8
_0-0_0
  6
CONTINUOUS
 62
    7
 10
14.058728722461289
 20
4.5127871764429006
 11
14.25167130969814
 21
4.7057297636797512
  0
LINE
  8
_0-0_0
  6
CONTINUOUS
 62
    7
 10
17.80870012072134
 20
8.2627585747029481
 11
19.208602449945928
 21
9.6626609039275344
  0
LINE
  8
_0-0_0
  6
CONTINUOUS
 62
    7
 10
13.550809464197349
 20
4.004867918178955
 11
13.75969594041754
 21
4.213754394399146
  0
LINE
  8
_0-0_0
  6
CONTINUOUS
 62
    7
 10
14.714999986509669
 20
5.3458351357879125
 11
15.66509052605846
 21
6.2959256753367007
  0
LINE
  8
_0-0_0
  6
CONTINUOUS
 62
    7
 10
14.0614483639274
 20
4.6922835132056377
 11
14.25559968070474
 21
4.8864348299829813
  0
LINE
  8
_0-0_0
  6
CONTINUOUS
 62
    7
 10
17.813352139018618
 20
8.4441872882968631
 11
19.152056083893491
 21
9.7828912331717301
  0
LINE
  8
_0-0_0
  6
CONTINUOUS
 62
    7
 10
13.321202951915509
 20
3.9520381011937542
 11
13.543635535054979
 21
4.1744706843332259
  0
LINE
  8
_0-0_0
  6
CONTINUOUS
 62
    7
 10
14.714999986509669
 20
5.5226118310845482
 11
15.661247554421569
 21
6.4688593989964537
  0
LINE
  8
_0-0_0
  6
CONTINUOUS
 62
    7
 10
14.064168005393499
 20
4.8717798499683757
 11
14.25193226682744
 21
5.0595441114023271
  0
LINE
  8
_0-0_0
  6
CONTINUOUS
 62
    7
 10
17.8180041573159
 20
8.6256160018907781
 11
18.97886296659702
 21
9.7864748111718942
  0
LINE
  8
_0-0_0
  6
CONTINUOUS
 62
    7
 10
13.09159643963367
 20
3.8992082842085511
 11
13.34458239622281
 21
4.1521942407976908
  0
LINE
  8
_0-0_0
  6
CONTINUOUS
 62
    7
 10
14.714999986509669
 20
5.6993885263811874
 11
15.657404582784689
 21
6.6417931226562085
  0
LINE
  8
_0-0_0
  6
CONTINUOUS
 62
    7
 10
14.0668876468596
 20
5.0512761867311155
 11
14.24673295225989
 21
5.2311214921314137
  0
LINE
  8
_0-0_0
  6
CONTINUOUS
 62
    7
 10
17.820323724669979
 20
8.8047122645415001
 11
18.802086271300378
 21
9.7864748111718995
  0
LINE
  8
_0-0_0
  6
CONTINUOUS
 62
    7
 10
12.86198992735183
 20
3.846378467223352
 11
13.15029716359041
 21
4.1346857034619288
  0
LINE
  8
_0-0_0
  6
CONTINUOUS
 62
    7
 10
14.714999986509669
 20
5.8761652216778221
 11
15.655567741757929
 21
6.8167329769260875
  0
LINE
  8
_0-0_0
  6
CONTINUOUS
 62
    7
 10
14.03208126523949
 20
5.19324650040764
 11
14.25999386247968
 21
5.421159097647842
  0
LINE
  8
_0-0_0
  6
CONTINUOUS
 62
    7
 10
17.820323724669979
 20
8.9814889598381331
 11
18.625309576003729
 21
9.7864748111718942
  0
LINE
  8
_0-0_0
  6
CONTINUOUS
 62
    7
 10
12.632383415069989
 20
3.793548650238149
 11
12.899088175537299
 21
4.0602534107054513
  0
LINE
  8
_0-0_0
  6
CONTINUOUS
 62
    7
 10
14.714999986509669
 20
6.0529419169744587
 11
15.65487720779193
 21
6.9928191382567224
  0
LINE
  8
_0-0_0
  6
CONTINUOUS
 62
    7
 10
13.939808278395609
 20
5.2777502088604055
 11
14.227547223207
 21
5.5654891536717938
  0
LINE
  8
_0-0_0
  6
CONTINUOUS
 62
    7
 10
17.820323724669979
 20
9.1582656551347731
 11
18.448532880707109
 21
9.7864748111718995
  0
LINE
  8
_0-0_0
  6
CONTINUOUS
 62
    7
 10
12.402776902788149
 20
3.740718833252945
 11
12.67333878417539
 21
4.0112807146401801
  0
LINE
  8
_0-0_0
  6
CONTINUOUS
 62
    7
 10
14.714999986509669
 20
6.229718612271097
 11
15.654186673825929
 21
7.1689052995873572
  0
LINE
  8
_0-0_0
  6
CONTINUOUS
 62
    7
 10
13.7837044152858
 20
5.298423041047231
 11
14.067606403652899
 21
5.5823250294143296
  0
LINE
  8
_0-0_0
  6
CONTINUOUS
 62
    7
 10
17.820323724669979
 20
9.3350423504314061
 11
18.27175618541047
 21
9.7864748111718942
  0
LINE
  8
_0-0_0
  6
CONTINUOUS
 62
    7
 10
12.167545386072509
 20
3.68226401183394
 11
12.448350262888759
 21
3.9630688886501888
  0
LINE
  8
_0-0_0
  6
CONTINUOUS
 62
    7
 10
14.714999986509669
 20
6.4064953075677317
 11
15.65349613985993
 21
7.3449914609179911
  0
LINE
  8
_0-0_0
  6
CONTINUOUS
 62
    7
 10
13.611248048040829
 20
5.3027433690989012
 11
13.86496625658725
 21
5.556461577645309
  0
LINE
  8
_0-0_0
  6
CONTINUOUS
 62
    7
 10
17.820323724669979
 20
9.5118190457280462
 11
18.094979490113829
 21
9.7864748111718995
  0
LINE
  8
_0-0_0
  6
CONTINUOUS
 62
    7
 10
11.93066461437502
 20
3.622159935433082
 11
12.22300027577152
 21
3.91449559682958
  0
LINE
  8
_0-0_0
  6
CONTINUOUS
 62
    7
 10
14.714999986509669
 20
6.5832720028643709
 11
15.652805605893929
 21
7.5210776222486268
  0
LINE
  8
_0-0_0
  6
CONTINUOUS
 62
    7
 10
13.38396372551659
 20
5.2522357418712903
 11
13.64477072384933
 21
5.5130427402040318
  0
LINE
  8
_0-0_0
  6
CONTINUOUS
 62
    7
 10
17.820323724669979
 20
9.6885957410246845
 11
17.918202794817201
 21
9.7864748111718995
  0
LINE
  8
_0-0_0
  6
CONTINUOUS
 62
    7
 10
11.69378384267752
 20
3.5620558590322271
 11
11.98965503797995
 21
3.8579270543346559
  0
LINE
  8
_0-0_0
  6
CONTINUOUS
 62
    7
 10
14.018907945923039
 20
6.0639566575743817
 11
14.199617900748009
 21
6.244666612399353
  0
LINE
  8
_0-0_0
  6
CONTINUOUS
 62
    7
 10
13.15816233019885
 20
5.2032110418501895
 11
13.42457519111141
 21
5.469623902762752
  0
LINE
  8
_0-0_0
  6
CONTINUOUS
 62
    7
 10
14.714999986509669
 20
6.7600486981610083
 11
15.652115071927919
 21
7.6971637835792616
  0
LINE
  8
_0-0_0
  6
CONTINUOUS
 62
    7
 10
11.43244480718371
 20
3.477493518835049
 11
11.746463328354339
 21
3.7915120400056832
  0
LINE
  8
_0-0_0
  6
CONTINUOUS
 62
    7
 10
13.80133662863488
 20
6.0231620355828532
 11
14.15927161633669
 21
6.3810970232846671
  0
LINE
  8
_0-0_0
  6
CONTINUOUS
 62
    7
 10
12.93317380891222
 20
5.1549992158601982
 11
13.20437965837349
 21
5.426205065321473
  0
LINE
  8
_0-0_0
  6
CONTINUOUS
 62
    7
 10
14.714999986509669
 20
6.936825393457644
 11
15.65142453796192
 21
7.8732499449098982
  0
LINE
  8
_0-0_0
  6
CONTINUOUS
 62
    7
 10
11.144754934718459
 20
3.366580341666439
 11
11.48831538994877
 21
3.7101407968967481
  0
LINE
  8
_0-0_0
  6
CONTINUOUS
 62
    7
 10
13.58118715424389
 20
5.9797892564885
 11
14.080663585249959
 21
6.4792656874945766
  0
LINE
  8
_0-0_0
  6
CONTINUOUS
 62
    7
 10
12.708185287625589
 20
5.1067873898702043
 11
12.974333825340229
 21
5.3729359275848471
  0
LINE
  8
_0-0_0
  6
CONTINUOUS
 62
    7
 10
14.714999986509669
 20
7.1136020887542823
 11
15.650734003995919
 21
8.0493361062405313
  0
LINE
  8
_0-0_0
  6
CONTINUOUS
 62
    7
 10
10.887625196105169
 20
3.2862272983497882
 11
11.23198918176865
 21
3.630591284013263
  0
LINE
  8
_0-0_0
  6
CONTINUOUS
 62
    7
 10
13.36099162150597
 20
5.936370419047221
 11
13.88397114756075
 21
6.4593499451020006
  0
LINE
  8
_0-0_0
  6
CONTINUOUS
 62
    7
 10
12.484702238960679
 20
5.060081036501927
 11
12.74338362664624
 21
5.31876242418749
  0
LINE
  8
_0-0_0
  6
CONTINUOUS
 62
    7
 10
14.714999986509669
 20
7.2903787840509171
 11
15.65004347002991
 21
8.2254222675711687
  0
LINE
  8
_0-0_0
  6
CONTINUOUS
 62
    7
 10
10.63049545749188
 20
3.2058742550331338
 11
10.975662973588519
 21
3.551041771129777
  0
LINE
  8
_0-0_0
  6
CONTINUOUS
 62
    7
 10
13.14079608876805
 20
5.8929515816059421
 11
13.6567489288183
 21
6.408904421656187
  0
LINE
  8
_0-0_0
  6
CONTINUOUS
 62
    7
 10
12.259907194501119
 20
5.0120626873390019
 11
12.51243342795224
 21
5.2645889207901319
  0
LINE
  8
_0-0_0
  6
CONTINUOUS
 62
    7
 10
14.714999986509669
 20
7.4671554793475536
 11
15.649352936063909
 21
8.4015084289017991
  0
LINE
  8
_0-0_0
  6
CONTINUOUS
 62
    7
 10
10.323478527560959
 20
3.0756340203988479
 11
10.70589960958393
 21
3.4580551024218229
  0
LINE
  8
_0-0_0
  6
CONTINUOUS
 62
    7
 10
12.92414248092437
 20
5.8530746690588957
 11
13.448776346116369
 21
6.377708534250897
  0
LINE
  8
_0-0_0
  6
CONTINUOUS
 62
    7
 10
12.026883368882819
 20
4.9558155570173463
 11
12.281483229258249
 21
5.2104154173927765
  0
LINE
  8
_0-0_0
  6
CONTINUOUS
 62
    7
 10
14.714999986509669
 20
7.643932174644191
 11
15.64866240209791
 21
8.577594590232433
  0
LINE
  8
_0-0_0
  6
CONTINUOUS
 62
    7
 10
10.039705411426879
 20
2.9686375995614109
 11
10.430913639122499
 21
3.3598458272570259
  0
LINE
  8
_0-0_0
  6
CONTINUOUS
 62
    7
 10
12.722617048286199
 20
5.828325931717365
 11
13.2369622849722
 21
6.3426711684033598
  0
LINE
  8
_0-0_0
  6
CONTINUOUS
 62
    7
 10
11.793859543264529
 20
4.899568426695688
 11
12.056582793172079
 21
5.162291676603238
  0
LINE
  8
_0-0_0
  6
CONTINUOUS
 62
    7
 10
14.714999986509669
 20
7.8207088699408258
 11
15.647971868131909
 21
8.7536807515630705
  0
LINE
  8
_0-0_0
  6
CONTINUOUS
 62
    7
 10
9.755932295292812
 20
2.8616411787239708
 11
10.155927668661069
 21
3.2616365520922281
  0
LINE
  8
_0-0_0
  6
CONTINUOUS
 62
    7
 10
12.521091615648039
 20
5.8035771943758343
 11
13.024830250616229
 21
6.3073158293440307
  0
LINE
  8
_0-0_0
  6
CONTINUOUS
 62
    7
 10
11.55411862299619
 20
4.836604201723988
 11
11.807675754674299
 21
5.0901613334021007
  0
LINE
  8
_0-0_0
  6
CONTINUOUS
 62
    7
 10
14.714999986509669
 20
7.997485565237465
 11
15.64728133416591
 21
8.9297669128937027
  0
LINE
  8
_0-0_0
  6
CONTINUOUS
 62
    7
 10
9.4433693657938011
 20
2.7258549445216009
 11
9.8583391529753008
 21
3.1408247317030979
  0
LINE
  8
_0-0_0
  6
CONTINUOUS
 62
    7
 10
12.31956618300987
 20
5.778828457034308
 11
12.81409989062406
 21
6.2733621646484962
  0
LINE
  8
_0-0_0
  6
CONTINUOUS
 62
    7
 10
11.29526703345469
 20
4.754529307479121
 11
11.55774053188283
 21
5.0170028059072677
  0
LINE
  8
_0-0_0
  6
CONTINUOUS
 62
    7
 10
14.714999986509669
 20
8.1742622605341033
 11
15.6465908001999
 21
9.1058530742243366
  0
LINE
  8
_0-0_0
  6
CONTINUOUS
 62
    7
 10
9.126077861415224
 20
2.5853401354396607
 11
9.5522136562420971
 21
3.011475930266533
  0
LINE
  8
_0-0_0
  6
CONTINUOUS
 62
    7
 10
12.080579730474049
 20
5.71661869979512
 11
12.60432487887205
 21
6.2403638481931222
  0
LINE
  8
_0-0_0
  6
CONTINUOUS
 62
    7
 10
13.79082201751779
 20
7.4268609868388599
 11
13.95830002752729
 21
7.5943389968483661
  0
LINE
  8
_0-0_0
  6
CONTINUOUS
 62
    7
 10
11.031845180727959
 20
4.66788415004903
 11
11.319091993232369
 21
4.9551309625534472
  0
LINE
  8
_0-0_0
  6
CONTINUOUS
 62
    7
 10
14.714999986509669
 20
8.351038955830738
 11
15.645900266233899
 21
9.2819392355549723
  0
LINE
  8
_0-0_0
  6
CONTINUOUS
 62
    7
 10
8.7968845052766013
 20
2.4329234745976711
 11
9.246088159508897
 21
2.8821271288299681
  0
LINE
  8
_0-0_0
  6
CONTINUOUS
 62
    7
 10
11.903803035177409
 20
5.7166186997951209
 11
12.394549867120039
 21
6.20736553173775
  0
LINE
  8
_0-0_0
  6
CONTINUOUS
 62
    7
 10
13.578090740126919
 20
7.39090640474463
 11
13.93084800499014
 21
7.7436636696078515
  0
LINE
  8
_0-0_0
  6
CONTINUOUS
 62
    7
 10
10.769270330937159
 20
4.5820859955548698
 11
11.08044345458191
 21
4.893259119199623
  0
LINE
  8
_0-0_0
  6
CONTINUOUS
 62
    7
 10
14.714999986509669
 20
8.5278156511273763
 11
15.645209732267899
 21
9.458025396885608
  0
LINE
  8
_0-0_0
  6
CONTINUOUS
 62
    7
 10
8.434492279918496
 20
2.247307944536204
 11
8.892642055251505
 21
2.7054577198692131
  0
LINE
  8
_0-0_0
  6
CONTINUOUS
 62
    7
 10
11.7068303791493
 20
5.6964227390636459
 11
12.184774855368029
 21
6.1743672152823787
  0
LINE
  8
_0-0_0
  6
CONTINUOUS
 62
    7
 10
13.36535946273605
 20
7.3549518226504
 11
13.856055114907359
 21
7.8456474748217042
  0
LINE
  8
_0-0_0
  6
CONTINUOUS
 62
    7
 10
10.512195790348249
 20
4.5017881502626009
 11
10.80771423219709
 21
4.7973065921114326
  0
LINE
  8
_0-0_0
  6
CONTINUOUS
 62
    7
 10
14.714999986509669
 20
8.7045923464240111
 11
15.6445191983019
 21
9.6341115582162402
  0
LINE
  8
_0-0_0
  6
CONTINUOUS
 62
    7
 10
8.0436916431105132
 20
2.0332840030248591
 11
8.5390886646582302
 21
2.5286810245725748
  0
LINE
  8
_0-0_0
  6
CONTINUOUS
 62
    7
 10
11.509850632961619
 20
5.676219688172603
 11
11.97499984361602
 21
6.1413688988270083
  0
LINE
  8
_0-0_0
  6
CONTINUOUS
 62
    7
 10
13.152628185345179
 20
7.3189972405561682
 11
13.6603764551859
 21
7.8267455103968828
  0
LINE
  8
_0-0_0
  6
CONTINUOUS
 62
    7
 10
10.24113819089341
 20
4.4075072461043962
 11
10.534973045167989
 21
4.701342100378973
  0
LINE
  8
_0-0_0
  6
CONTINUOUS
 62
    7
 10
14.714999986509669
 20
8.8813690417206494
 11
15.59987918854334
 21
9.766248243754326
  0
LINE
  8
_0-0_0
  6
CONTINUOUS
 62
    7
 10
7.650854542451321
 20
1.817223597662303
 11
8.1855352740649554
 21
2.351904329275936
  0
LINE
  8
_0-0_0
  6
CONTINUOUS
 62
    7
 10
11.34101673114322
 20
5.6841624816508415
 11
11.799896673629589
 21
6.1430424241372048
  0
LINE
  8
_0-0_0
  6
CONTINUOUS
 62
    7
 10
12.938712205482719
 20
7.2818579559903362
 11
13.447244900463569
 21
7.790390650971191
  0
LINE
  8
_0-0_0
  6
CONTINUOUS
 62
    7
 10
9.9700805914385703
 20
4.313226341946188
 11
10.264735977142759
 21
4.6078817276503798
  0
LINE
  8
_0-0_0
  6
CONTINUOUS
 62
    7
 10
14.714999986509669
 20
9.0581457370172842
 11
15.449419171223869
 21
9.7925649217314862
  0
LINE
  8
_0-0_0
  6
CONTINUOUS
 62
    7
 10
7.258017441792127
 20
1.601163192299746
 11
7.8163650778209392
 21
2.1595108283285577
  0
LINE
  8
_0-0_0
  6
CONTINUOUS
 62
    7
 10
11.185997167575399
 20
5.705919613379657
 11
11.647502970787659
 21
6.1674254165919117
  0
LINE
  8
_0-0_0
  6
CONTINUOUS
 62
    7
 10
12.72161801827632
 20
7.2415404640805753
 11
13.230993797479339
 21
7.7509162432835934
  0
LINE
  8
_0-0_0
  6
CONTINUOUS
 62
    7
 10
9.6843170233841124
 20
4.2042394691883657
 11
9.9957279625609238
 21
4.5156504083651789
  0
LINE
  8
_0-0_0
  6
CONTINUOUS
 62
    7
 10
14.714999986509669
 20
9.2349224323139207
 11
15.280218620011369
 21
9.8001410658156267
  0
LINE
  8
_0-0_0
  6
CONTINUOUS
 62
    7
 10
6.7914178495348282
 20
1.311340295339084
 11
7.3883865236922643
 21
1.90830896949652
  0
LINE
  8
_0-0_0
  6
CONTINUOUS
 62
    7
 10
11.030977604007579
 20
5.727676745108476
 11
11.516319436930279
 21
6.213018578031173
  0
LINE
  8
_0-0_0
  6
CONTINUOUS
 62
    7
 10
12.504523831069919
 20
7.2012229721708163
 11
13.014742694495099
 21
7.711441835595993
  0
LINE
  8
_0-0_0
  6
CONTINUOUS
 62
    7
 10
9.3853218501535451
 20
4.0820209912544376
 11
9.7267199479790846
 21
4.423419089079978
  0
LINE
  8
_0-0_0
  6
CONTINUOUS
 62
    7
 10
14.714999986509669
 20
9.4116991276105608
 11
15.11101806879888
 21
9.8077172098997671
  0
LINE
  8
_0-0_0
  6
CONTINUOUS
 62
    7
 10
6.2360289166403068
 20
0.9327280577412008
 11
6.9016570928221669
 21
1.598356233923059
  0
LINE
  8
_0-0_0
  6
CONTINUOUS
 62
    7
 10
10.87595804043976
 20
5.7494338768372896
 11
11.4061389645972
 21
6.279614800994727
  0
LINE
  8
_0-0_0
  6
CONTINUOUS
 62
    7
 10
12.28742964386352
 20
7.1609054802610563
 11
12.79849159151086
 21
7.6719674279083971
  0
LINE
  8
_0-0_0
  6
CONTINUOUS
 62
    7
 10
9.0855700624766413
 20
3.9590458988741699
 11
9.4277075230781033
 21
4.3011833594756332
  0
LINE
  8
_0-0_0
  6
CONTINUOUS
 62
    7
 10
14.714999986509669
 20
9.5884758229071955
 11
14.941817517586379
 21
9.8152933539839075
  0
LINE
  8
_0-0_0
  6
CONTINUOUS
 62
    7
 10
5.6506006023359072
 20
0.5240764387334372
 11
6.3904861065086198
 21
1.263961942906149
  0
LINE
  8
_0-0_0
  6
CONTINUOUS
 62
    7
 10
10.72987079143043
 20
5.7801233231246031
 11
11.311437163545429
 21
6.361689695239594
  0
LINE
  8
_0-0_0
  6
CONTINUOUS
 62
    7
 10
12.082868266788109
 20
7.1331207984822739
 11
12.582240488526629
 21
7.6324930202207976
  0
LINE
  8
_0-0_0
  6
CONTINUOUS
 62
    7
 10
8.7593496602173441
 20
3.8096021919115128
 11
9.1419593303807431
 21
4.1922118620749078
  0
LINE
  8
_0-0_0
  6
CONTINUOUS
 62
    7
 10
14.724397650664249
 20
9.7746501823584122
 11
14.74568198252852
 21
9.7959345142226883
  0
LINE
  8
_0-0_0
  6
CONTINUOUS
 62
    7
 10
5.192299912096943
 20
0.2425524437911117
 11
5.8088337542422658
 21
0.8590862859364345
  0
LINE
  8
_0-0_0
  6
CONTINUOUS
 62
    7
 10
10.600687821790589
 20
5.8277170487813911
 11
11.216735362493659
 21
6.4437645894844619
  0
LINE
  8
_0-0_0
  6
CONTINUOUS
 62
    7
 10
11.89194943586774
 20
7.1189786628585443
 11
12.365989385542389
 21
7.5930186125331973
  0
LINE
  8
_0-0_0
  6
CONTINUOUS
 62
    7
 10
8.4315762043548314
 20
3.6586054313456339
 11
8.8420105222846085
 21
4.0690397492754133
  0
LINE
  8
_0-0_0
  6
CONTINUOUS
 62
    7
 10
13.550423386940009
 20
8.7774526139308175
 11
13.70341725362411
 21
8.9304464806149166
  0
LINE
  8
_0-0_0
  6
CONTINUOUS
 62
    7
 10
5.004700153822962
 20
0.2317293808137664
 11
5.2761214060479577
 21
0.5031506330387639
  0
LINE
  8
_0-0_0
  6
CONTINUOUS
 62
    7
 10
10.490575439574149
 20
5.8943813618615852
 11
11.12203356144189
 21
6.5258394837293263
  0
LINE
  8
_0-0_0
  6
CONTINUOUS
 62
    7
 10
11.669855893530289
 20
7.073661815817732
 11
12.149738282558159
 21
7.5535442048455969
  0
LINE
  8
_0-0_0
  6
CONTINUOUS
 62
    7
 10
8.1038027484923151
 20
3.5076086707797577
 11
8.4881220503594541
 21
3.8919279726468931
  0
LINE
  8
_0-0_0
  6
CONTINUOUS
 62
    7
 10
13.34091026658845
 20
8.7447161888758841
 11
13.674978350503289
 21
9.0787842727907328
  0
LINE
  8
_0-0_0
  6
CONTINUOUS
 62
    7
 10
4.8171003955489801
 20
0.220906317836421
 11
5.0265724873540493
 21
0.4303784096414903
  0
LINE
  8
_0-0_0
  6
CONTINUOUS
 62
    7
 10
10.392366164409349
 20
5.9729487819934217
 11
11.057567341803069
 21
6.6381499593871478
  0
LINE
  8
_0-0_0
  6
CONTINUOUS
 62
    7
 10
11.44105186274672
 20
7.0216344803307997
 11
11.929001937975549
 21
7.509584555559627
  0
LINE
  8
_0-0_0
  6
CONTINUOUS
 62
    7
 10
7.7204842427419846
 20
3.301066860326062
 11
8.1903390849801418
 21
3.7709217025642201
  0
LINE
  8
_0-0_0
  6
CONTINUOUS
 62
    7
 10
13.12903472743743
 20
8.7096173450215061
 11
13.60851327720624
 21
9.18909589479032
  0
LINE
  8
_0-0_0
  6
CONTINUOUS
 62
    7
 10
4.6327229189452996
 20
0.2133055365293788
 11
4.8419390500442283
 21
0.4225216676283061
  0
LINE
  8
_0-0_0
  6
CONTINUOUS
 62
    7
 10
10.294156889244549
 20
6.0515162021252626
 11
11.04056098974279
 21
6.7979203026235071
  0
LINE
  8
_0-0_0
  6
CONTINUOUS
 62
    7
 10
9.245740256298113
 20
5.0030995691788255
 11
9.3151714436134565
 21
5.0725307564941699
  0
LINE
  8
_0-0_0
  6
CONTINUOUS
 62
    7
 10
11.23060341596501
 20
6.9879627288457273
 11
11.708031068854749
 21
7.4653903817354683
  0
LINE
  8
_0-0_0
  6
CONTINUOUS
 62
    7
 10
7.3173361725400187
 20
3.0746954854207331
 11
7.8323662770044553
 21
3.5897255898851669
  0
LINE
  8
_0-0_0
  6
CONTINUOUS
 62
    7
 10
12.91464596931172
 20
8.6720052821924333
 11
13.43219263793139
 21
9.1895519508121061
  0
LINE
  8
_0-0_0
  6
CONTINUOUS
 62
    7
 10
4.4663448527837612
 20
0.223704165664475
 11
4.6573056127344081
 21
0.4146649256151225
  0
LINE
  8
_0-0_0
  6
CONTINUOUS
 62
    7
 10
8.6059328017067411
 20
4.540068809884092
 11
9.5875536938976502
 21
5.521689702075001
  0
LINE
  8
_0-0_0
  6
CONTINUOUS
 62
    7
 10
10.195947614079749
 20
6.1300836222570991
 11
11.48706019973396
 21
7.4211962079113114
  0
LINE
  8
_0-0_0
  6
CONTINUOUS
 62
    7
 10
6.910749773357752
 20
2.8448857815351051
 11
7.4743934690287616
 21
3.4085294772061129
  0
LINE
  8
_0-0_0
  6
CONTINUOUS
 62
    7
 10
12.700257211186009
 20
8.6343932193633605
 11
13.21549862434197
 21
9.1496346325193194
  0
LINE
  8
_0-0_0
  6
CONTINUOUS
 62
    7
 10
4.2999667866222184
 20
0.2341027947995711
 11
4.479416595347736
 21
0.4135526035250888
  0
LINE
  8
_0-0_0
  6
CONTINUOUS
 62
    7
 10
8.2332684170273466
 20
4.344181120501334
 11
9.6530265440075151
 21
5.7639392474815034
  0
LINE
  8
_0-0_0
  6
CONTINUOUS
 62
    7
 10
10.105466684730329
 20
6.2163793882043245
 11
11.26608933061316
 21
7.37700203408715
  0
LINE
  8
_0-0_0
  6
CONTINUOUS
 62
    7
 10
6.504163374175488
 20
2.6150760776494768
 11
7.0788176025965521
 21
3.189730306070539
  0
LINE
  8
_0-0_0
  6
CONTINUOUS
 62
    7
 10
12.490884060546779
 20
8.6017967640207704
 11
12.998804610752539
 21
9.109717314226529
  0
LINE
  8
_0-0_0
  6
CONTINUOUS
 62
    7
 10
4.1335887204606791
 20
0.2445014239346673
 11
4.3056361152256181
 21
0.4165488186996084
  0
LINE
  8
_0-0_0
  6
CONTINUOUS
 62
    7
 10
7.8606040323479486
 20
4.1482934311185752
 11
9.6509747384366004
 21
5.9386641372072244
  0
LINE
  8
_0-0_0
  6
CONTINUOUS
 62
    7
 10
10.02549627495328
 20
6.313185673723912
 11
11.07687047489318
 21
7.364559873663806
  0
LINE
  8
_0-0_0
  6
CONTINUOUS
 62
    7
 10
6.0044150294047353
 20
2.2921044281753601
 11
6.6663386469044008
 21
2.9540280456750251
  0
LINE
  8
_0-0_0
  6
CONTINUOUS
 62
    7
 10
12.28343048784307
 20
8.5711198866136903
 11
12.78211059716312
 21
9.0697999959337405
  0
LINE
  8
_0-0_0
  6
CONTINUOUS
 62
    7
 10
3.925810914062326
 20
0.2135003128329532
 11
4.131855635103502
 21
0.4195450338741271
  0
LINE
  8
_0-0_0
  6
CONTINUOUS
 62
    7
 10
7.5805194779333486
 20
4.0449855720006109
 11
9.6274045123970477
 21
6.09187060646431
  0
LINE
  8
_0-0_0
  6
CONTINUOUS
 62
    7
 10
9.9455258651762381
 20
6.4099919592434959
 11
10.963940799830849
 21
7.4284068938981118
  0
LINE
  8
_0-0_0
  6
CONTINUOUS
 62
    7
 10
5.4488311299010181
 20
1.9132972239682799
 11
6.2538596912122468
 21
2.718325785279509
  0
LINE
  8
_0-0_0
  6
CONTINUOUS
 62
    7
 10
12.06329347105858
 20
8.5277595651258373
 11
12.565010900128109
 21
9.0294769941953738
  0
LINE
  8
_0-0_0
  6
CONTINUOUS
 62
    7
 10
3.7521085792439121
 20
0.2165746733111748
 11
3.9580751549813828
 21
0.4225412490486465
  0
LINE
  8
_0-0_0
  6
CONTINUOUS
 62
    7
 10
8.5968108865150263
 20
5.2380536758789233
 11
9.5803425539318318
 21
6.2215853432957306
  0
LINE
  8
_0-0_0
  6
CONTINUOUS
 62
    7
 10
7.2620772480912458
 20
3.9033200374551459
 11
8.1846458122447991
 21
4.825888601608697
  0
LINE
  8
_0-0_0
  6
CONTINUOUS
 62
    7
 10
9.9009592941332886
 20
6.5422020834971883
 11
10.905525624366179
 21
7.546768413730077
  0
LINE
  8
_0-0_0
  6
CONTINUOUS
 62
    7
 10
4.7713468541548831
 20
1.412589643518781
 11
5.7404827622877006
 21
2.3817255516516011
  0
LINE
  8
_0-0_0
  6
CONTINUOUS
 62
    7
 10
11.84315645427409
 20
8.484399243637986
 11
12.34404003100731
 21
8.9852828203712125
  0
LINE
  8
_0-0_0
  6
CONTINUOUS
 62
    7
 10
3.5803826466700359
 20
0.2216254360339358
 11
3.8283085583014311
 21
0.4695513476653315
  0
LINE
  8
_0-0_0
  6
CONTINUOUS
 62
    7
 10
8.7008010913219742
 20
5.5188205759825077
 11
9.5259497246097861
 21
6.343969209270325
  0
LINE
  8
_0-0_0
  6
CONTINUOUS
 62
    7
 10
9.8772675720832268
 20
6.6952870567437603
 11
10.92018263871712
 21
7.7382021233776585
  0
LINE
  8
_0-0_0
  6
CONTINUOUS
 62
    7
 10
7.0393386120174863
 20
3.8573580966780212
 11
7.798997000586346
 21
4.6170164852468795
  0
LINE
  8
_0-0_0
  6
CONTINUOUS
 62
    7
 10
11.62301943748959
 20
8.4410389221501294
 11
12.1251176179862
 21
8.9431371026467321
  0
LINE
  8
_0-0_0
  6
CONTINUOUS
 62
    7
 10
3.408656714096161
 20
0.2266761987566968
 11
5.247497989758334
 21
2.065517474418868
  0
LINE
  8
_0-0_0
  6
CONTINUOUS
 62
    7
 10
8.6890159783021978
 20
5.6838121582593679
 11
9.4712848181282485
 21
6.4660809980854203
  0
LINE
  8
_0-0_0
  6
CONTINUOUS
 62
    7
 10
9.8535758500331596
 20
6.8483720299903323
 11
10.996867844683249
 21
7.9916640246404249
  0
LINE
  8
_0-0_0
  6
CONTINUOUS
 62
    7
 10
6.8165999759437223
 20
3.811396155900895
 11
7.522900730940214
 21
4.5176969108973858
  0
LINE
  8
_0-0_0
  6
CONTINUOUS
 62
    7
 10
11.27033567691835
 20
8.26513185687552
 11
11.912985583630229
 21
8.9077817635874048
  0
LINE
  8
_0-0_0
  6
CONTINUOUS
 62
    7
 10
3.2369307815222851
 20
0.2317269614794578
 11
4.5421422235924637
 21
1.536938403549638
  0
LINE
  8
_0-0_0
  6
CONTINUOUS
 62
    7
 10
8.6648488499971296
 20
5.836421725250938
 11
9.4152640344074853
 21
6.5868369096612919
  0
LINE
  8
_0-0_0
  6
CONTINUOUS
 62
    7
 10
6.5938613398699601
 20
3.7654342151237711
 11
7.2621371492123687
 21
4.433710024466178
  0
LINE
  8
_0-0_0
  6
CONTINUOUS
 62
    7
 10
9.8298841279830941
 20
7.0014570032369052
 11
11.700853549274269
 21
8.8724264245280721
  0
LINE
  8
_0-0_0
  6
CONTINUOUS
 62
    7
 10
3.0935611482430389
 20
0.26513402349685
 11
3.5870383094859108
 21
0.7586111847397207
  0
LINE
  8
_0-0_0
  6
CONTINUOUS
 62
    7
 10
8.612079687222014
 20
5.960429257772458
 11
9.3592432506867151
 21
6.7075928212371618
  0
LINE
  8
_0-0_0
  6
CONTINUOUS
 62
    7
 10
9.806192405933034
 20
7.1545419764834772
 11
11.488721514918299
 21
8.8370710854687484
  0
LINE
  8
_0-0_0
  6
CONTINUOUS
 62
    7
 10
6.425566000132755
 20
3.7739155706832008
 11
7.0807084356184502
 21
4.429058006168896
  0
LINE
  8
_0-0_0
  6
CONTINUOUS
 62
    7
 10
8.5593105244468983
 20
6.0844367902939824
 11
9.3032224669659537
 21
6.8283487328130361
  0
LINE
  8
_0-0_0
  6
CONTINUOUS
 62
    7
 10
9.7825006838829651
 20
7.307626949730051
 11
11.276589480562339
 21
8.8017157464094211
  0
LINE
  8
_0-0_0
  6
CONTINUOUS
 62
    7
 10
6.2589879603340001
 20
3.7841142261810851
 11
6.8992797220245334
 21
4.4244059878716157
  0
LINE
  8
_0-0_0
  6
CONTINUOUS
 62
    7
 10
8.5065413616717844
 20
6.2084443228155032
 11
9.2472016832451888
 21
6.949104644388905
  0
LINE
  8
_0-0_0
  6
CONTINUOUS
 62
    7
 10
6.0924099205352471
 20
3.7943128816789659
 11
6.7311248381317163
 21
4.4330277992754361
  0
LINE
  8
_0-0_0
  6
CONTINUOUS
 62
    7
 10
9.7777258666592423
 20
7.4796288278029585
 11
11.03490130046295
 21
8.7368042616066681
  0
LINE
  8
_0-0_0
  6
CONTINUOUS
 62
    7
 10
4.413798069070367
 20
2.115701030214089
 11
5.078006034848232
 21
2.7799089959919509
  0
LINE
  8
_0-0_0
  6
CONTINUOUS
 62
    7
 10
8.4537721988966687
 20
6.332451855337025
 11
9.1911808995244221
 21
7.0698605559647802
  0
LINE
  8
_0-0_0
  6
CONTINUOUS
 62
    7
 10
5.9517438806003761
 20
3.830423537040732
 11
6.5796697624704023
 21
4.4583494189107586
  0
LINE
  8
_0-0_0
  6
CONTINUOUS
 62
    7
 10
9.862271242670678
 20
7.7409508991110334
 11
10.700288270080029
 21
8.5789679265203862
  0
LINE
  8
_0-0_0
  6
CONTINUOUS
 62
    7
 10
3.3531378972905461
 20
1.2318175537309019
 11
5.3169564505894282
 21
3.195636107029784
  0
LINE
  8
_0-0_0
  6
CONTINUOUS
 62
    7
 10
8.4007803534991474
 20
6.4562367052361393
 11
9.1351601158036572
 21
7.19061646754065
  0
LINE
  8
_0-0_0
  6
CONTINUOUS
 62
    7
 10
5.836035498224394
 20
3.8914918499613881
 11
6.4713227556756889
 21
4.5267791074126826
  0
LINE
  8
_0-0_0
  6
CONTINUOUS
 62
    7
 10
10.02523263889728
 20
8.0806889906342718
 11
10.18300627860073
 21
8.238462630337727
  0
LINE
  8
_0-0_0
  6
CONTINUOUS
 62
    7
 10
2.371099543018829
 20
0.426555894755825
 11
5.323052198703106
 21
3.378508550440098
  0
LINE
  8
_0-0_0
  6
CONTINUOUS
 62
    7
 10
5.7203271158484163
 20
3.9525601628820461
 11
6.3677687172402377
 21
4.6000017642738688
  0
LINE
  8
_0-0_0
  6
CONTINUOUS
 62
    7
 10
8.3477473449101555
 20
6.5799803919437849
 11
9.0791393320828923
 21
7.3113723791165208
  0
LINE
  8
_0-0_0
  6
CONTINUOUS
 62
    7
 10
2.1207237618529548
 20
0.3529568088865864
 11
5.3258254002043088
 21
3.558058447237939
  0
LINE
  8
_0-0_0
  6
CONTINUOUS
 62
    7
 10
5.6046187334724342
 20
4.0136284758027001
 11
6.3014774565040001
 21
4.710487198834266
  0
LINE
  8
_0-0_0
  6
CONTINUOUS
 62
    7
 10
4.21668854262583
 20
2.6256982849560959
 11
5.3027675703830086
 21
3.7117773127132758
  0
LINE
  8
_0-0_0
  6
CONTINUOUS
 62
    7
 10
8.2935467670639315
 20
6.7025565093941965
 11
9.0231185483621274
 21
7.4321282906923942
  0
LINE
  8
_0-0_0
  6
CONTINUOUS
 62
    7
 10
2.036987432501915
 20
0.4459971748321845
 11
3.839462192642896
 21
2.2484719349731641
  0
LINE
  8
_0-0_0
  6
CONTINUOUS
 62
    7
 10
5.523504375773574
 20
4.1092908134004781
 11
6.2351861957677607
 21
4.820972633394664
  0
LINE
  8
_0-0_0
  6
CONTINUOUS
 62
    7
 10
4.3168704996395259
 20
2.902656937266431
 11
5.244299945268148
 21
3.830086382895053
  0
LINE
  8
_0-0_0
  6
CONTINUOUS
 62
    7
 10
8.23411322295558
 20
6.8198996605824824
 11
8.9670977646413643
 21
7.5528842022682658
  0
LINE
  8
_0-0_0
  6
CONTINUOUS
 62
    7
 10
1.9532511031508779
 20
0.5390375407777828
 11
2.7048819981525911
 21
1.290668435779495
  0
LINE
  8
_0-0_0
  6
CONTINUOUS
 62
    7
 10
5.4485082020113626
 20
4.211071334934906
 11
6.181950479256252
 21
4.9445136121797927
  0
LINE
  8
_0-0_0
  6
CONTINUOUS
 62
    7
 10
8.1746796788472266
 20
6.9372428117707682
 11
8.9150384803805042
 21
7.677601613304045
  0
LINE
  8
_0-0_0
  6
CONTINUOUS
 62
    7
 10
4.3134082023194189
 20
3.0759713352429609
 11
5.1605636159171082
 21
3.9231267488406511
  0
LINE
  8
_0-0_0
  6
CONTINUOUS
 62
    7
 10
5.3853971883086986
 20
4.3247370165288758
 11
6.128917470667262
 21
5.0682572988874401
  0
LINE
  8
_0-0_0
  6
CONTINUOUS
 62
    7
 10
8.1152461347388751
 20
7.0545859629590523
 11
8.8645308531528925
 21
7.8038706813730671
  0
LINE
  8
_0-0_0
  6
CONTINUOUS
 62
    7
 10
4.2482799461575
 20
3.1876197743776781
 11
5.076827286566071
 21
4.0161671147862501
  0
LINE
  8
_0-0_0
  6
CONTINUOUS
 62
    7
 10
5.3285761076776356
 20
4.444692631194453
 11
6.0700594748758867
 21
5.1861759983927022
  0
LINE
  8
_0-0_0
  6
CONTINUOUS
 62
    7
 10
8.0558125906305235
 20
7.1719291141473373
 11
8.8073661458548286
 21
7.9234826693716433
  0
LINE
  8
_0-0_0
  6
CONTINUOUS
 62
    7
 10
4.1531796265321476
 20
3.2692961500489641
 11
4.993090957215033
 21
4.1092074807318468
  0
LINE
  8
_0-0_0
  6
CONTINUOUS
 62
    7
 10
5.2670842999810707
 20
4.559977518794521
 11
6.0111339097770093
 21
5.3040271285904614
  0
LINE
  8
_0-0_0
  6
CONTINUOUS
 62
    7
 10
7.996379046522172
 20
7.2892722653356205
 11
8.7397750564767022
 21
8.0326682752901525
  0
LINE
  8
_0-0_0
  6
CONTINUOUS
 62
    7
 10
4.0359197277750658
 20
3.328812946588517
 11
4.8823757397687499
 21
4.175268958582202
  0
LINE
  8
_0-0_0
  6
CONTINUOUS
 62
    7
 10
5.2043570855209742
 20
4.6740269996310628
 11
5.952208344678131
 21
5.421878258788217
  0
LINE
  8
_0-0_0
  6
CONTINUOUS
 62
    7
 10
7.9369455024138177
 20
7.4066154165239073
 11
8.6647116159324628
 21
8.1343815300425497
  0
LINE
  8
_0-0_0
  6
CONTINUOUS
 62
    7
 10
3.8591430324784279
 20
3.328812946588517
 11
4.7645246095709934
 21
4.2341945236810811
  0
LINE
  8
_0-0_0
  6
CONTINUOUS
 62
    7
 10
5.1475759819082433
 20
4.7940225913149676
 11
5.893282779579251
 21
5.5397293889859762
  0
LINE
  8
_0-0_0
  6
CONTINUOUS
 62
    7
 10
7.8775119583054671
 20
7.5239585677121922
 11
8.4178223184971336
 21
8.064268927903857
  0
LINE
  8
_0-0_0
  6
CONTINUOUS
 62
    7
 10
3.593898697807111
 20
3.2403453072138361
 11
4.5880857608118841
 21
4.2345323702186092
  0
LINE
  8
_0-0_0
  6
CONTINUOUS
 62
    7
 10
5.0930152734833553
 20
4.916238578186717
 11
5.8253263938536239
 21
5.6485496985569874
  0
LINE
  8
_0-0_0
  6
CONTINUOUS
 62
    7
 10
7.831980761007804
 20
7.6552040657111684
 11
8.0393084059736352
 21
7.8625317106769951
  0
LINE
  8
_0-0_0
  6
CONTINUOUS
 62
    7
 10
2.8654794466297208
 20
2.6887027513330838
 11
4.381987052356445
 21
4.2052103570598058
  0
LINE
  8
_0-0_0
  6
CONTINUOUS
 62
    7
 10
5.0384545650584655
 20
5.0384545650584646
 11
5.7614908020721316
 21
5.7614908020721298
  0
LINE
  8
_0-0_0
  6
CONTINUOUS
 62
    7
 10
1.917302156515648
 20
1.917302156515648
 11
4.161016183235648
 21
4.161016183235648
  0
LINE
  8
_0-0_0
  6
CONTINUOUS
 62
    7
 10
4.9838938566335793
 20
5.1606705519302131
 11
5.70911252198424
 21
5.8858892172808747
  0
LINE
  8
_0-0_0
  6
CONTINUOUS
 62
    7
 10
1.5474703340992059
 20
1.724247029395844
 11
3.798556388570037
 21
3.9753330838666731
  0
LINE
  8
_0-0_0
  6
CONTINUOUS
 62
    7
 10
4.9293331482086912
 20
5.2828865388019643
 11
5.6567342418963484
 21
6.0102876324896197
  0
LINE
  8
_0-0_0
  6
CONTINUOUS
 62
    7
 10
1.293209197825075
 20
1.6467625884183481
 11
3.273138531117183
 21
3.626691921710456
  0
LINE
  8
_0-0_0
  6
CONTINUOUS
 62
    7
 10
4.8721221741039641
 20
5.4024522599938755
 11
5.6043559618084541
 21
6.134686047698362
  0
LINE
  8
_0-0_0
  6
CONTINUOUS
 62
    7
 10
1.116432502528438
 20
1.6467625884183481
 11
2.2478336983966951
 21
2.7781637842866051
  0
LINE
  8
_0-0_0
  6
CONTINUOUS
 62
    7
 10
4.8097303992933868
 20
5.5168371804799329
 11
5.5468228307841407
 21
6.2539296119706868
  0
LINE
  8
_0-0_0
  6
CONTINUOUS
 62
    7
 10
0.9744897431591652
 20
1.6815965243457109
 11
1.857137820779166
 21
2.5642446019657127
  0
LINE
  8
_0-0_0
  6
CONTINUOUS
 62
    7
 10
4.7473386244828086
 20
5.6312221009659921
 11
5.4867854625701912
 21
6.3706689390533739
  0
LINE
  8
_0-0_0
  6
CONTINUOUS
 62
    7
 10
0.8409251289350396
 20
1.724808605418223
 11
1.680361125482529
 21
2.5642446019657127
  0
LINE
  8
_0-0_0
  6
CONTINUOUS
 62
    7
 10
4.684946849672233
 20
5.7456070214520522
 11
5.4267480943562391
 21
6.4874082661360583
  0
LINE
  8
_0-0_0
  6
CONTINUOUS
 62
    7
 10
0.7073605147109144
 20
1.768020686490735
 11
1.5499909536302729
 21
2.6106511254100941
  0
LINE
  8
_0-0_0
  6
CONTINUOUS
 62
    7
 10
4.6225550748616539
 20
5.8599919419381105
 11
5.3496134865969358
 21
6.5870503536733933
  0
LINE
  8
_0-0_0
  6
CONTINUOUS
 62
    7
 10
0.6142489497845264
 20
1.8516858168609839
 11
1.458554731925115
 21
2.6959915990015739
  0
LINE
  8
_0-0_0
  6
CONTINUOUS
 62
    7
 10
4.5691712262240322
 20
5.983384788597128
 11
5.0702035126910081
 21
6.4844170750641021
  0
LINE
  8
_0-0_0
  6
CONTINUOUS
 62
    7
 10
0.5305126204334883
 20
1.9447261828065829
 11
1.399672057912819
 21
2.8138856202859141
  0
LINE
  8
_0-0_0
  6
CONTINUOUS
 62
    7
 10
2.8555810885605281
 20
4.4465713462302591
 11
3.670202731167361
 21
5.2611929888370934
  0
LINE
  8
_0-0_0
  6
CONTINUOUS
 62
    7
 10
4.5178489598475879
 20
6.1088392175173211
 11
4.7426466949354741
 21
6.3336369526052038
  0
LINE
  8
_0-0_0
  6
CONTINUOUS
 62
    7
 10
0.4467762910824497
 20
2.0377665487521801
 11
1.3681612325925289
 21
2.959151490262263
  0
LINE
  8
_0-0_0
  6
CONTINUOUS
 62
    7
 10
1.8386252131254519
 20
3.6063921660918207
 11
3.5937587548228711
 21
5.3615257077892382
  0
LINE
  8
_0-0_0
  6
CONTINUOUS
 62
    7
 10
0.3636466211486443
 20
2.1314135741150121
 11
1.4317815823245541
 21
3.1995485352909232
  0
LINE
  8
_0-0_0
  6
CONTINUOUS
 62
    7
 10
0.3116534754731625
 20
2.2561971237361668
 11
3.5173147784783789
 21
5.4618584267413829
  0
LINE
  8
_0-0_0
  6
CONTINUOUS
 62
    7
 10
0.3058273378491219
 20
2.4271476814087638
 11
3.3323529666240507
 21
5.4536733101836922
  0
LINE
  8
_0-0_0
  6
CONTINUOUS
 62
    7
 10
0.3753527878807799
 20
2.6734498267370581
 11
2.3129393619476927
 21
4.6110364008039717
  0
LINE
  8
_0-0_0
  6
CONTINUOUS
 62
    7
 10
0.602567206024715
 20
3.077440940177631
 11
1.27969533632395
 21
3.754569070476867
  0
ENDBLK
  0
BLOCK
  2
-001-LOGO
 70
   64
 10
0
 20
0
 30
0
  0
INSERT
  2
-000-_X1
  8
_0-0_0
 10
0
 20
0
 41
1
 42
1
 50
0
  0
LINE
  8
_0-0_0
  6
CONTINUOUS
 62
    7
 10
20.502194225808441
 20
5.2343525131869048
 11
20.772733793905729
 21
5.2343525131869048
  0
LINE
  8
_0-0_0
  6
CONTINUOUS
 62
    7
 10
20.772733793905729
 20
5.2343525131869048
 11
21.584352498197631
 21
5.0343884845932489
  0
LINE
  8
_0-0_0
  6
CONTINUOUS
 62
    7
 10
21.584352498197631
 20
5.0343884845932489
 11
21.76079134695675
 21
4.9755755350068682
  0
LINE
  8
_0-0_0
  6
CONTINUOUS
 62
    7
 10
21.76079134695675
 20
4.9755755350068682
 11
21.972517965467691
 21
4.94028776525505
  0
LINE
  8
_0-0_0
  6
CONTINUOUS
 62
    7
 10
21.972517965467691
 20
4.94028776525505
 11
22.53712228149682
 21
4.7873740963304936
  0
LINE
  8
_0-0_0
  6
CONTINUOUS
 62
    7
 10
22.53712228149682
 20
4.7873740963304936
 11
23.501654654713288
 21
4.4697841685640753
  0
LINE
  8
_0-0_0
  6
CONTINUOUS
 62
    7
 10
23.501654654713288
 20
4.4697841685640753
 11
23.854532352231501
 21
4.3521582693913369
  0
LINE
  8
_0-0_0
  6
CONTINUOUS
 62
    7
 10
23.854532352231501
 20
4.3521582693913369
 11
25.1719424229662
 21
3.7875539533621909
  0
LINE
  8
_0-0_0
  6
CONTINUOUS
 62
    7
 10
25.1719424229662
 20
3.7875539533621909
 11
25.548345300318938
 21
3.5875899247685349
  0
LINE
  8
_0-0_0
  6
CONTINUOUS
 62
    7
 10
25.548345300318938
 20
3.5875899247685349
 11
25.677733789408961
 21
3.540539565099436
  0
LINE
  8
_0-0_0
  6
CONTINUOUS
 62
    7
 10
25.677733789408961
 20
3.540539565099436
 11
25.842410048250801
 21
3.434676255843982
  0
LINE
  8
_0-0_0
  6
CONTINUOUS
 62
    7
 10
25.842410048250801
 20
3.434676255843982
 11
26.124712206265371
 21
3.3052877667539619
  0
LINE
  8
_0-0_0
  6
CONTINUOUS
 62
    7
 10
26.124712206265371
 20
3.3052877667539619
 11
26.7010791122118
 21
2.9641726591530348
  0
LINE
  8
_0-0_0
  6
CONTINUOUS
 62
    7
 10
26.7010791122118
 20
2.9641726591530348
 11
26.936330910557281
 21
2.8818345297321159
  0
LINE
  8
_0-0_0
  6
CONTINUOUS
 62
    7
 10
26.936330910557281
 20
2.8818345297321159
 11
27.653848895510979
 21
2.4230935229584229
  0
LINE
  8
_0-0_0
  6
CONTINUOUS
 62
    7
 10
27.653848895510979
 20
2.4230935229584229
 11
28.006726593029181
 21
2.176079134695668
  0
LINE
  8
_0-0_0
  6
CONTINUOUS
 62
    7
 10
28.006726593029181
 20
2.176079134695668
 11
28.347841700630141
 21
1.964352516184731
  0
LINE
  8
_0-0_0
  6
CONTINUOUS
 62
    7
 10
28.347841700630141
 20
1.964352516184731
 11
28.583093498975621
 21
1.776151077508359
  0
LINE
  8
_0-0_0
  6
CONTINUOUS
 62
    7
 10
28.583093498975621
 20
1.776151077508359
 11
28.75953234773474
 21
1.670287768252904
  0
LINE
  8
_0-0_0
  6
CONTINUOUS
 62
    7
 10
28.75953234773474
 20
1.670287768252904
 11
29.618201411695739
 21
0.964532373216457
  0
LINE
  8
_0-0_0
  6
CONTINUOUS
 62
    7
 10
29.618201411695739
 20
0.964532373216457
 11
29.735827310868469
 21
0.8469064740437204
  0
LINE
  8
_0-0_0
  6
CONTINUOUS
 62
    7
 10
29.735827310868469
 20
0.8469064740437204
 11
29.818165440289391
 21
0.8233812942091842
  0
LINE
  8
_0-0_0
  6
CONTINUOUS
 62
    7
 10
29.818165440289391
 20
0.8233812942091842
 11
29.935791339462131
 21
0.6587050353673475
  0
LINE
  8
_0-0_0
  6
CONTINUOUS
 62
    7
 10
29.935791339462131
 20
0.6587050353673475
 11
29.935791339462131
 21
0.5646043160291469
  0
LINE
  8
_0-0_0
  6
CONTINUOUS
 62
    7
 10
29.935791339462131
 20
0.5646043160291469
 11
29.735827310868469
 21
0.4822661866082285
  0
LINE
  8
_0-0_0
  6
CONTINUOUS
 62
    7
 10
29.735827310868469
 20
0.4822661866082285
 11
28.5948560888929
 21
0.4940287765255106
  0
LINE
  8
_0-0_0
  6
CONTINUOUS
 62
    7
 10
28.5948560888929
 20
0.4940287765255106
 11
28.40665465021653
 21
0.5881294958636829
  0
LINE
  8
_0-0_0
  6
CONTINUOUS
 62
    7
 10
28.40665465021653
 20
0.5881294958636829
 11
27.84205033418738
 21
1.023345322802839
  0
LINE
  8
_0-0_0
  6
CONTINUOUS
 62
    7
 10
27.84205033418738
 20
1.023345322802839
 11
26.77165465171544
 21
1.764388487591076
  0
LINE
  8
_0-0_0
  6
CONTINUOUS
 62
    7
 10
26.77165465171544
 20
1.764388487591076
 11
26.13647479618265
 21
2.129028775026569
  0
LINE
  8
_0-0_0
  6
CONTINUOUS
 62
    7
 10
26.13647479618265
 20
2.129028775026569
 11
25.477769760815309
 21
2.5289568322138791
  0
LINE
  8
_0-0_0
  6
CONTINUOUS
 62
    7
 10
25.477769760815309
 20
2.5289568322138791
 11
24.90140285486888
 21
2.7877338103939148
  0
LINE
  8
_0-0_0
  6
CONTINUOUS
 62
    7
 10
24.90140285486888
 20
2.7877338103939148
 11
24.066258970742438
 21
3.1758992776639431
  0
LINE
  8
_0-0_0
  6
CONTINUOUS
 62
    7
 10
24.066258970742438
 20
3.1758992776639431
 11
23.44284170512692
 21
3.4111510760094461
  0
LINE
  8
_0-0_0
  6
CONTINUOUS
 62
    7
 10
23.44284170512692
 20
3.4111510760094461
 11
23.289928036202361
 21
3.481726615513081
  0
LINE
  8
_0-0_0
  6
CONTINUOUS
 62
    7
 10
23.289928036202361
 20
3.481726615513081
 11
23.054676237856881
 21
3.5523021550167181
  0
LINE
  8
_0-0_0
  6
CONTINUOUS
 62
    7
 10
23.054676237856881
 20
3.5523021550167181
 11
21.83136688646039
 21
3.940467622286774
  0
LINE
  8
_0-0_0
  6
CONTINUOUS
 62
    7
 10
21.83136688646039
 20
3.940467622286774
 11
20.655107894732989
 21
4.1757194206322481
  0
LINE
  8
_0-0_0
  6
CONTINUOUS
 62
    7
 10
20.655107894732989
 20
4.1757194206322481
 11
20.090503578703849
 21
4.2462949601358825
  0
LINE
  8
_0-0_0
  6
CONTINUOUS
 62
    7
 10
20.090503578703849
 20
4.2462949601358825
 11
19.996402859365659
 21
4.305107909722265
  0
LINE
  8
_0-0_0
  6
CONTINUOUS
 62
    7
 10
19.996402859365659
 20
4.305107909722265
 11
19.89053955011019
 21
4.4344963988122572
  0
LINE
  8
_0-0_0
  6
CONTINUOUS
 62
    7
 10
19.89053955011019
 20
4.4344963988122572
 11
19.902302140027469
 21
5.1873021535178036
  0
LINE
  8
_0-0_0
  6
CONTINUOUS
 62
    7
 10
19.902302140027469
 20
5.1873021535178036
 11
20.019928039200209
 21
5.3166906426078242
  0
LINE
  8
_0-0_0
  6
CONTINUOUS
 62
    7
 10
20.019928039200209
 20
5.3166906426078242
 11
20.31399278713205
 21
5.293165462773258
  0
LINE
  8
_0-0_0
  6
CONTINUOUS
 62
    7
 10
20.31399278713205
 20
5.293165462773258
 11
20.502194225808441
 21
5.2343525131869048
  0
LINE
  8
_0-0_0
  6
CONTINUOUS
 62
    7
 10
20.502194225808441
 20
5.2343525131869048
 11
20.502194225808441
 21
5.2343525131869048
  0
LINE
  8
_0-0_0
  6
CONTINUOUS
 62
    7
 10
20.655107894732989
 20
5.4813669014496309
 11
20.843309333409379
 21
5.4225539518632768
  0
LINE
  8
_0-0_0
  6
CONTINUOUS
 62
    7
 10
20.843309333409379
 20
5.4225539518632768
 11
21.36086328976944
 21
5.3166906426078242
  0
LINE
  8
_0-0_0
  6
CONTINUOUS
 62
    7
 10
21.36086328976944
 20
5.3166906426078242
 11
21.59611508811491
 21
5.2343525131869048
  0
LINE
  8
_0-0_0
  6
CONTINUOUS
 62
    7
 10
21.59611508811491
 20
5.2343525131869048
 11
21.819604296543118
 21
5.1990647434350583
  0
LINE
  8
_0-0_0
  6
CONTINUOUS
 62
    7
 10
21.819604296543118
 20
5.1990647434350583
 11
22.078381274723138
 21
5.1167266140141389
  0
LINE
  8
_0-0_0
  6
CONTINUOUS
 62
    7
 10
22.078381274723138
 20
5.1167266140141389
 11
22.360683432737719
 21
5.0579136644277848
  0
LINE
  8
_0-0_0
  6
CONTINUOUS
 62
    7
 10
22.360683432737719
 20
5.0579136644277848
 11
23.325215805954169
 21
4.728561146744111
  0
LINE
  8
_0-0_0
  6
CONTINUOUS
 62
    7
 10
23.325215805954169
 20
4.728561146744111
 11
23.536942424465109
 21
4.6462230173231926
  0
LINE
  8
_0-0_0
  6
CONTINUOUS
 62
    7
 10
23.536942424465109
 20
4.6462230173231926
 11
23.81924458247969
 21
4.5521222979849929
  0
LINE
  8
_0-0_0
  6
CONTINUOUS
 62
    7
 10
23.81924458247969
 20
4.5521222979849929
 11
24.301510769087908
 21
4.36392085930862
  0
LINE
  8
_0-0_0
  6
CONTINUOUS
 62
    7
 10
24.301510769087908
 20
4.36392085930862
 11
25.477769760815309
 21
3.858129492865856
  0
LINE
  8
_0-0_0
  6
CONTINUOUS
 62
    7
 10
25.477769760815309
 20
3.858129492865856
 11
26.348201414693569
 21
3.434676255843982
  0
LINE
  8
_0-0_0
  6
CONTINUOUS
 62
    7
 10
26.348201414693569
 20
3.434676255843982
 11
27.112769759316389
 21
2.9759352490702881
  0
LINE
  8
_0-0_0
  6
CONTINUOUS
 62
    7
 10
27.112769759316389
 20
2.9759352490702881
 11
27.430359687082791
 21
2.7994964003111979
  0
LINE
  8
_0-0_0
  6
CONTINUOUS
 62
    7
 10
27.430359687082791
 20
2.7994964003111979
 11
27.677374075345539
 21
2.67010791122118
  0
LINE
  8
_0-0_0
  6
CONTINUOUS
 62
    7
 10
27.677374075345539
 20
2.67010791122118
 11
28.465467599802881
 21
2.1525539548611321
  0
LINE
  8
_0-0_0
  6
CONTINUOUS
 62
    7
 10
28.465467599802881
 20
2.1525539548611321
 11
29.547625872192071
 21
1.329172660651948
  0
LINE
  8
_0-0_0
  6
CONTINUOUS
 62
    7
 10
29.547625872192071
 20
1.329172660651948
 11
30.606258964746729
 21
0.4234532370218745
  0
LINE
  8
_0-0_0
  6
CONTINUOUS
 62
    7
 10
30.606258964746729
 20
0.4234532370218745
 11
30.6768345042504
 21
0.3293525176836737
  0
LINE
  8
_0-0_0
  6
CONTINUOUS
 62
    7
 10
30.6768345042504
 20
0.3293525176836737
 11
30.618021554664011
 21
0.2940647479318556
  0
LINE
  8
_0-0_0
  6
CONTINUOUS
 62
    7
 10
30.618021554664011
 20
0.2940647479318556
 11
29.194748174673861
 21
0.2940647479318556
  0
LINE
  8
_0-0_0
  6
CONTINUOUS
 62
    7
 10
29.194748174673861
 20
0.2940647479318556
 11
28.441942419968338
 21
0.3058273378491094
  0
LINE
  8
_0-0_0
  6
CONTINUOUS
 62
    7
 10
28.441942419968338
 20
0.3058273378491094
 11
27.971438823277381
 21
0.6704676252846013
  0
LINE
  8
_0-0_0
  6
CONTINUOUS
 62
    7
 10
27.971438823277381
 20
0.6704676252846013
 11
27.700899255180079
 21
0.8586690639610026
  0
LINE
  8
_0-0_0
  6
CONTINUOUS
 62
    7
 10
27.700899255180079
 20
0.8586690639610026
 11
27.077481989564549
 21
1.317410070734666
  0
LINE
  8
_0-0_0
  6
CONTINUOUS
 62
    7
 10
27.077481989564549
 20
1.317410070734666
 11
26.877517960970891
 21
1.4820863295765021
  0
LINE
  8
_0-0_0
  6
CONTINUOUS
 62
    7
 10
26.877517960970891
 20
1.4820863295765021
 11
26.677553932377239
 21
1.5526618690801679
  0
LINE
  8
_0-0_0
  6
CONTINUOUS
 62
    7
 10
26.677553932377239
 20
1.5526618690801679
 11
26.41877695419723
 21
1.729100717839259
  0
LINE
  8
_0-0_0
  6
CONTINUOUS
 62
    7
 10
26.41877695419723
 20
1.729100717839259
 11
25.595395659988039
 21
2.2113669044474861
  0
LINE
  8
_0-0_0
  6
CONTINUOUS
 62
    7
 10
25.595395659988039
 20
2.2113669044474861
 11
24.701438826275218
 21
2.658345321303897
  0
LINE
  8
_0-0_0
  6
CONTINUOUS
 62
    7
 10
24.701438826275218
 20
2.658345321303897
 11
24.136834510246078
 21
2.893597119649371
  0
LINE
  8
_0-0_0
  6
CONTINUOUS
 62
    7
 10
24.136834510246078
 20
2.893597119649371
 11
23.81924458247969
 21
3.0347481986566711
  0
LINE
  8
_0-0_0
  6
CONTINUOUS
 62
    7
 10
23.81924458247969
 20
3.0347481986566711
 11
22.325395662985901
 21
3.564064744933999
  0
LINE
  8
_0-0_0
  6
CONTINUOUS
 62
    7
 10
22.325395662985901
 20
3.564064744933999
 11
21.796079116708568
 21
3.705215823941272
  0
LINE
  8
_0-0_0
  6
CONTINUOUS
 62
    7
 10
21.796079116708568
 20
3.705215823941272
 11
21.254999980513968
 21
3.8463669029485729
  0
LINE
  8
_0-0_0
  6
CONTINUOUS
 62
    7
 10
21.254999980513968
 20
3.8463669029485729
 11
21.03151077208577
 21
3.8934172626176728
  0
LINE
  8
_0-0_0
  6
CONTINUOUS
 62
    7
 10
21.03151077208577
 20
3.8934172626176728
 11
20.878597103161201
 21
3.940467622286774
  0
LINE
  8
_0-0_0
  6
CONTINUOUS
 62
    7
 10
20.878597103161201
 20
3.940467622286774
 11
20.325755377049329
 21
4.0228057517076933
  0
LINE
  8
_0-0_0
  6
CONTINUOUS
 62
    7
 10
20.325755377049329
 20
4.0228057517076933
 11
20.12579134845566
 21
4.0698561113767652
  0
LINE
  8
_0-0_0
  6
CONTINUOUS
 62
    7
 10
20.12579134845566
 20
4.0698561113767652
 11
19.855251780358369
 21
4.0933812912113278
  0
LINE
  8
_0-0_0
  6
CONTINUOUS
 62
    7
 10
19.855251780358369
 20
4.0933812912113278
 11
19.72586329126835
 21
4.1404316508804281
  0
LINE
  8
_0-0_0
  6
CONTINUOUS
 62
    7
 10
19.72586329126835
 20
4.1404316508804281
 11
19.667050341681978
 21
4.2110071903840671
  0
LINE
  8
_0-0_0
  6
CONTINUOUS
 62
    7
 10
19.667050341681978
 20
4.2110071903840671
 11
19.67881293159926
 21
5.5519424409532955
  0
LINE
  8
_0-0_0
  6
CONTINUOUS
 62
    7
 10
19.67881293159926
 20
5.5519424409532955
 11
19.72586329126835
 21
5.5872302107051146
  0
LINE
  8
_0-0_0
  6
CONTINUOUS
 62
    7
 10
19.72586329126835
 20
5.5872302107051146
 11
20.2081294778766
 21
5.5401798510360142
  0
LINE
  8
_0-0_0
  6
CONTINUOUS
 62
    7
 10
20.2081294778766
 20
5.5401798510360142
 11
20.655107894732989
 21
5.4813669014496309
  0
LINE
  8
_0-0_0
  6
CONTINUOUS
 62
    7
 10
20.655107894732989
 20
5.4813669014496309
 11
20.655107894732989
 21
5.4813669014496309
  0
LINE
  8
_0-0_0
  6
CONTINUOUS
 62
    7
 10
14.00924459147323
 20
5.2343525131869048
 11
14.0680575410596
 21
5.128489203931422
  0
LINE
  8
_0-0_0
  6
CONTINUOUS
 62
    7
 10
14.0680575410596
 20
5.128489203931422
 11
14.05629495114233
 21
4.3521582693913369
  0
LINE
  8
_0-0_0
  6
CONTINUOUS
 62
    7
 10
14.05629495114233
 20
4.3521582693913369
 11
13.938669051969599
 21
4.2462949601358825
  0
LINE
  8
_0-0_0
  6
CONTINUOUS
 62
    7
 10
13.938669051969599
 20
4.2462949601358825
 11
13.421115095609529
 21
4.1521942407976819
  0
LINE
  8
_0-0_0
  6
CONTINUOUS
 62
    7
 10
13.421115095609529
 20
4.1521942407976819
 11
13.20938847709861
 21
4.1521942407976819
  0
LINE
  8
_0-0_0
  6
CONTINUOUS
 62
    7
 10
13.20938847709861
 20
4.1521942407976819
 11
12.891798549332209
 21
4.0580935214595106
  0
LINE
  8
_0-0_0
  6
CONTINUOUS
 62
    7
 10
12.891798549332209
 20
4.0580935214595106
 11
12.23309351396487
 21
3.9169424424522101
  0
LINE
  8
_0-0_0
  6
CONTINUOUS
 62
    7
 10
12.23309351396487
 20
3.9169424424522101
 11
11.84492804669483
 21
3.822841723114009
  0
LINE
  8
_0-0_0
  6
CONTINUOUS
 62
    7
 10
11.84492804669483
 20
3.822841723114009
 11
11.58615106851481
 21
3.7405035936931181
  0
LINE
  8
_0-0_0
  6
CONTINUOUS
 62
    7
 10
11.58615106851481
 20
3.7405035936931181
 11
10.90392085331292
 21
3.5287769751821809
  0
LINE
  8
_0-0_0
  6
CONTINUOUS
 62
    7
 10
10.90392085331292
 20
3.5287769751821809
 11
10.080539559103739
 21
3.234712227250327
  0
LINE
  8
_0-0_0
  6
CONTINUOUS
 62
    7
 10
10.080539559103739
 20
3.234712227250327
 11
9.2453956749773027
 21
2.8818345297321159
  0
LINE
  8
_0-0_0
  6
CONTINUOUS
 62
    7
 10
9.2453956749773027
 20
2.8818345297321159
 11
9.0101438766318171
 21
2.7642086305593798
  0
LINE
  8
_0-0_0
  6
CONTINUOUS
 62
    7
 10
9.0101438766318171
 20
2.7642086305593798
 11
7.998561143746258
 21
2.258417264116586
  0
LINE
  8
_0-0_0
  6
CONTINUOUS
 62
    7
 10
7.998561143746258
 20
2.258417264116586
 11
7.58687049664168
 21
2.034928055688395
  0
LINE
  8
_0-0_0
  6
CONTINUOUS
 62
    7
 10
7.58687049664168
 20
2.034928055688395
 11
6.9046402814397946
 21
1.59971222874924
  0
LINE
  8
_0-0_0
  6
CONTINUOUS
 62
    7
 10
6.9046402814397946
 20
1.59971222874924
 11
6.7752517923497759
 21
1.540899279162885
  0
LINE
  8
_0-0_0
  6
CONTINUOUS
 62
    7
 10
6.7752517923497759
 20
1.540899279162885
 11
6.5517625839215707
 21
1.376223020321049
  0
LINE
  8
_0-0_0
  6
CONTINUOUS
 62
    7
 10
6.5517625839215707
 20
1.376223020321049
 11
5.3519784123596281
 21
0.541079136194611
  0
LINE
  8
_0-0_0
  6
CONTINUOUS
 62
    7
 10
5.3519784123596281
 20
0.541079136194611
 11
5.1402517938487051
 21
0.4352158269391281
  0
LINE
  8
_0-0_0
  6
CONTINUOUS
 62
    7
 10
5.1402517938487051
 20
0.4352158269391281
 11
4.5874100677368261
 21
0.4116906471045924
  0
LINE
  8
_0-0_0
  6
CONTINUOUS
 62
    7
 10
4.5874100677368261
 20
0.4116906471045924
 11
3.9051798525349421
 21
0.4234532370218745
  0
LINE
  8
_0-0_0
  6
CONTINUOUS
 62
    7
 10
3.9051798525349421
 20
0.4234532370218745
 11
3.8463669029485729
 21
0.4469784168564103
  0
LINE
  8
_0-0_0
  6
CONTINUOUS
 62
    7
 10
3.8463669029485729
 20
0.4469784168564103
 11
3.7993165432794731
 21
0.5057913664427644
  0
LINE
  8
_0-0_0
  6
CONTINUOUS
 62
    7
 10
3.7993165432794731
 20
0.5057913664427644
 11
3.8346043130312921
 21
0.6469424454500654
  0
LINE
  8
_0-0_0
  6
CONTINUOUS
 62
    7
 10
3.8346043130312921
 20
0.6469424454500654
 11
4.316870499639533
 21
1.070395682471938
  0
LINE
  8
_0-0_0
  6
CONTINUOUS
 62
    7
 10
4.316870499639533
 20
1.070395682471938
 11
5.3166906426078091
 21
1.823201437177458
  0
LINE
  8
_0-0_0
  6
CONTINUOUS
 62
    7
 10
5.3166906426078091
 20
1.823201437177458
 11
6.3517985553279183
 21
2.5289568322138791
  0
LINE
  8
_0-0_0
  6
CONTINUOUS
 62
    7
 10
6.3517985553279183
 20
2.5289568322138791
 11
7.433956827717111
 21
3.1406115079121259
  0
LINE
  8
_0-0_0
  6
CONTINUOUS
 62
    7
 10
7.433956827717111
 20
3.1406115079121259
 11
8.0220863235808081
 21
3.4699640255957988
  0
LINE
  8
_0-0_0
  6
CONTINUOUS
 62
    7
 10
8.0220863235808081
 20
3.4699640255957988
 11
9.0689568262181836
 21
3.9522302122040278
  0
LINE
  8
_0-0_0
  6
CONTINUOUS
 62
    7
 10
9.0689568262181836
 20
3.9522302122040278
 11
9.5276978329918762
 21
4.1404316508804281
  0
LINE
  8
_0-0_0
  6
CONTINUOUS
 62
    7
 10
9.5276978329918762
 20
4.1404316508804281
 11
9.8452877607582678
 21
4.2698201399704203
  0
LINE
  8
_0-0_0
  6
CONTINUOUS
 62
    7
 10
9.8452877607582678
 20
4.2698201399704203
 11
10.115827328855569
 21
4.36392085930862
  0
LINE
  8
_0-0_0
  6
CONTINUOUS
 62
    7
 10
10.115827328855569
 20
4.36392085930862
 11
10.65690646505017
 21
4.5521222979849929
  0
LINE
  8
_0-0_0
  6
CONTINUOUS
 62
    7
 10
10.65690646505017
 20
4.5521222979849929
 11
10.833345313809269
 21
4.5991726576540932
  0
LINE
  8
_0-0_0
  6
CONTINUOUS
 62
    7
 10
10.833345313809269
 20
4.5991726576540932
 11
11.1391726516584
 21
4.705035966909576
  0
LINE
  8
_0-0_0
  6
CONTINUOUS
 62
    7
 10
11.1391726516584
 20
4.705035966909576
 11
11.62143883826662
 21
4.8579496358341298
  0
LINE
  8
_0-0_0
  6
CONTINUOUS
 62
    7
 10
11.62143883826662
 20
4.8579496358341298
 11
12.303669053468519
 21
5.0226258946759667
  0
LINE
  8
_0-0_0
  6
CONTINUOUS
 62
    7
 10
12.303669053468519
 20
5.0226258946759667
 11
12.644784161069459
 21
5.093201434179603
  0
LINE
  8
_0-0_0
  6
CONTINUOUS
 62
    7
 10
12.644784161069459
 20
5.093201434179603
 11
13.3034891964368
 21
5.2343525131869048
  0
LINE
  8
_0-0_0
  6
CONTINUOUS
 62
    7
 10
13.3034891964368
 20
5.2343525131869048
 11
13.621079124203189
 21
5.304928052690542
  0
LINE
  8
_0-0_0
  6
CONTINUOUS
 62
    7
 10
13.621079124203189
 20
5.304928052690542
 11
13.91514387213504
 21
5.293165462773258
  0
LINE
  8
_0-0_0
  6
CONTINUOUS
 62
    7
 10
13.91514387213504
 20
5.293165462773258
 11
14.00924459147323
 21
5.2343525131869048
  0
LINE
  8
_0-0_0
  6
CONTINUOUS
 62
    7
 10
14.00924459147323
 20
5.2343525131869048
 11
14.00924459147323
 21
5.2343525131869048
  0
LINE
  8
_0-0_0
  6
CONTINUOUS
 62
    7
 10
14.268021569653249
 20
5.4813669014496309
 11
14.24449638981871
 21
5.304928052690542
  0
LINE
  8
_0-0_0
  6
CONTINUOUS
 62
    7
 10
14.24449638981871
 20
5.304928052690542
 11
14.25625897973599
 21
4.9167625854204839
  0
LINE
  8
_0-0_0
  6
CONTINUOUS
 62
    7
 10
14.25625897973599
 20
4.9167625854204839
 11
14.24449638981871
 21
4.3756834492259031
  0
LINE
  8
_0-0_0
  6
CONTINUOUS
 62
    7
 10
14.24449638981871
 20
4.3756834492259031
 11
14.24449638981871
 21
4.1874820105495
  0
LINE
  8
_0-0_0
  6
CONTINUOUS
 62
    7
 10
14.24449638981871
 20
4.1874820105495
 11
14.20920862006689
 21
4.1404316508804281
  0
LINE
  8
_0-0_0
  6
CONTINUOUS
 62
    7
 10
14.20920862006689
 20
4.1404316508804281
 11
14.0680575410596
 21
4.0816187012940456
  0
LINE
  8
_0-0_0
  6
CONTINUOUS
 62
    7
 10
14.0680575410596
 20
4.0816187012940456
 11
13.67989207378957
 21
4.0345683416249462
  0
LINE
  8
_0-0_0
  6
CONTINUOUS
 62
    7
 10
13.67989207378957
 20
4.0345683416249462
 11
12.350719413137609
 21
3.7287410037758359
  0
LINE
  8
_0-0_0
  6
CONTINUOUS
 62
    7
 10
12.350719413137609
 20
3.7287410037758359
 11
11.56262588868026
 21
3.5287769751821809
  0
LINE
  8
_0-0_0
  6
CONTINUOUS
 62
    7
 10
11.56262588868026
 20
3.5287769751821809
 11
11.174460421410209
 21
3.375863306257627
  0
LINE
  8
_0-0_0
  6
CONTINUOUS
 62
    7
 10
11.174460421410209
 20
3.375863306257627
 11
10.609856105381069
 21
3.199424457498508
  0
LINE
  8
_0-0_0
  6
CONTINUOUS
 62
    7
 10
10.609856105381069
 20
3.199424457498508
 11
10.433417256621959
 21
3.11708632807759
  0
LINE
  8
_0-0_0
  6
CONTINUOUS
 62
    7
 10
10.433417256621959
 20
3.11708632807759
 11
9.7158992716682632
 21
2.8465467599802978
  0
LINE
  8
_0-0_0
  6
CONTINUOUS
 62
    7
 10
9.7158992716682632
 20
2.8465467599802978
 11
8.892517977459077
 21
2.4819064725448058
  0
LINE
  8
_0-0_0
  6
CONTINUOUS
 62
    7
 10
8.892517977459077
 20
2.4819064725448058
 11
8.4102517908508485
 21
2.2348920842820501
  0
LINE
  8
_0-0_0
  6
CONTINUOUS
 62
    7
 10
8.4102517908508485
 20
2.2348920842820501
 11
7.233992799123456
 21
1.5879496388319849
  0
LINE
  8
_0-0_0
  6
CONTINUOUS
 62
    7
 10
7.233992799123456
 20
1.5879496388319849
 11
6.6693884830943082
 21
1.235071941313748
  0
LINE
  8
_0-0_0
  6
CONTINUOUS
 62
    7
 10
6.6693884830943082
 20
1.235071941313748
 11
5.6578057502087499
 21
0.529316546277329
  0
LINE
  8
_0-0_0
  6
CONTINUOUS
 62
    7
 10
5.6578057502087499
 20
0.529316546277329
 11
5.2696402829387087
 21
0.2470143882627552
  0
LINE
  8
_0-0_0
  6
CONTINUOUS
 62
    7
 10
5.2696402829387087
 20
0.2470143882627552
 11
4.6579856072404757
 21
0.2117266185109371
  0
LINE
  8
_0-0_0
  6
CONTINUOUS
 62
    7
 10
4.6579856072404757
 20
0.2117266185109371
 11
4.0933812912113278
 21
0.2470143882627552
  0
LINE
  8
_0-0_0
  6
CONTINUOUS
 62
    7
 10
4.0933812912113278
 20
0.2470143882627552
 11
3.9169424424522101
 21
0.2117266185109371
  0
LINE
  8
_0-0_0
  6
CONTINUOUS
 62
    7
 10
3.9169424424522101
 20
0.2117266185109371
 11
3.11708632807759
 21
0.2352517983454731
  0
LINE
  8
_0-0_0
  6
CONTINUOUS
 62
    7
 10
3.11708632807759
 20
0.2352517983454731
 11
3.0935611482430389
 21
0.2470143882627552
  0
LINE
  8
_0-0_0
  6
CONTINUOUS
 62
    7
 10
3.0935611482430389
 20
0.2470143882627552
 11
3.0935611482430389
 21
0.3293525176836737
  0
LINE
  8
_0-0_0
  6
CONTINUOUS
 62
    7
 10
3.0935611482430389
 20
0.3293525176836737
 11
3.564064744933999
 21
0.7410431647882661
  0
LINE
  8
_0-0_0
  6
CONTINUOUS
 62
    7
 10
3.564064744933999
 20
0.7410431647882661
 11
3.764028773527654
 21
0.8939568337128207
  0
LINE
  8
_0-0_0
  6
CONTINUOUS
 62
    7
 10
3.764028773527654
 20
0.8939568337128207
 11
4.4697841685640877
 21
1.4820863295765021
  0
LINE
  8
_0-0_0
  6
CONTINUOUS
 62
    7
 10
4.4697841685640877
 20
1.4820863295765021
 11
5.1990647434350734
 21
2.034928055688395
  0
LINE
  8
_0-0_0
  6
CONTINUOUS
 62
    7
 10
5.1990647434350734
 20
2.034928055688395
 11
5.646043160291482
 21
2.3172302137029698
  0
LINE
  8
_0-0_0
  6
CONTINUOUS
 62
    7
 10
5.646043160291482
 20
2.3172302137029698
 11
6.1283093468997131
 21
2.6465827313866441
  0
LINE
  8
_0-0_0
  6
CONTINUOUS
 62
    7
 10
6.1283093468997131
 20
2.6465827313866441
 11
7.1163668999507176
 21
3.211187047415791
  0
LINE
  8
_0-0_0
  6
CONTINUOUS
 62
    7
 10
7.1163668999507176
 20
3.211187047415791
 11
7.363381288213473
 21
3.3523381264230631
  0
LINE
  8
_0-0_0
  6
CONTINUOUS
 62
    7
 10
7.363381288213473
 20
3.3523381264230631
 11
8.316151071512662
 21
3.8346043130312921
  0
LINE
  8
_0-0_0
  6
CONTINUOUS
 62
    7
 10
8.316151071512662
 20
3.8346043130312921
 11
8.5631654597754032
 21
3.9169424424522101
  0
LINE
  8
_0-0_0
  6
CONTINUOUS
 62
    7
 10
8.5631654597754032
 20
3.9169424424522101
 11
8.951330927045447
 21
4.128669060963146
  0
LINE
  8
_0-0_0
  6
CONTINUOUS
 62
    7
 10
8.951330927045447
 20
4.128669060963146
 11
9.304208624563671
 21
4.2462949601358825
  0
LINE
  8
_0-0_0
  6
CONTINUOUS
 62
    7
 10
9.304208624563671
 20
4.2462949601358825
 11
9.6217985523300626
 21
4.3874460391431853
  0
LINE
  8
_0-0_0
  6
CONTINUOUS
 62
    7
 10
9.6217985523300626
 20
4.3874460391431853
 11
10.445179846539229
 21
4.669748197157757
  0
LINE
  8
_0-0_0
  6
CONTINUOUS
 62
    7
 10
10.445179846539229
 20
4.669748197157757
 11
11.08035970207203
 21
4.8932374055859488
  0
LINE
  8
_0-0_0
  6
CONTINUOUS
 62
    7
 10
11.08035970207203
 20
4.8932374055859488
 11
11.715539557604829
 21
5.0579136644277848
  0
LINE
  8
_0-0_0
  6
CONTINUOUS
 62
    7
 10
11.715539557604829
 20
5.0579136644277848
 11
11.950791355950299
 21
5.1402517938487051
  0
LINE
  8
_0-0_0
  6
CONTINUOUS
 62
    7
 10
11.950791355950299
 20
5.1402517938487051
 11
12.23309351396487
 21
5.1990647434350583
  0
LINE
  8
_0-0_0
  6
CONTINUOUS
 62
    7
 10
12.23309351396487
 20
5.1990647434350583
 11
13.185863297264059
 21
5.4225539518632768
  0
LINE
  8
_0-0_0
  6
CONTINUOUS
 62
    7
 10
13.185863297264059
 20
5.4225539518632768
 11
14.021007181390499
 21
5.5872302107051146
  0
LINE
  8
_0-0_0
  6
CONTINUOUS
 62
    7
 10
14.021007181390499
 20
5.5872302107051146
 11
14.24449638981871
 21
5.5637050308705511
  0
LINE
  8
_0-0_0
  6
CONTINUOUS
 62
    7
 10
14.24449638981871
 20
5.5637050308705511
 11
14.268021569653249
 21
5.4813669014496309
  0
LINE
  8
_0-0_0
  6
CONTINUOUS
 62
    7
 10
14.268021569653249
 20
5.4813669014496309
 11
14.268021569653249
 21
5.4813669014496309
  0
LINE
  8
_0-0_0
  6
CONTINUOUS
 62
    7
 10
30.42982011598761
 20
4.9520503551723322
 11
31.112050331189518
 21
4.3756834492259031
  0
LINE
  8
_0-0_0
  6
CONTINUOUS
 62
    7
 10
31.112050331189518
 20
4.3756834492259031
 11
31.417877669038631
 21
3.8816546727003919
  0
LINE
  8
_0-0_0
  6
CONTINUOUS
 62
    7
 10
31.417877669038631
 20
3.8816546727003919
 11
31.488453208542271
 21
3.5287769751821809
  0
LINE
  8
_0-0_0
  6
CONTINUOUS
 62
    7
 10
31.488453208542271
 20
3.5287769751821809
 11
31.38258989928682
 21
3.1288489179948721
  0
LINE
  8
_0-0_0
  6
CONTINUOUS
 62
    7
 10
31.38258989928682
 20
3.1288489179948721
 11
31.288489179948609
 21
2.9759352490702881
  0
LINE
  8
_0-0_0
  6
CONTINUOUS
 62
    7
 10
31.288489179948609
 20
2.9759352490702881
 11
30.782697813505851
 21
2.4819064725448058
  0
LINE
  8
_0-0_0
  6
CONTINUOUS
 62
    7
 10
30.782697813505851
 20
2.4819064725448058
 11
30.64154673449855
 21
2.3760431632893239
  0
LINE
  8
_0-0_0
  6
CONTINUOUS
 62
    7
 10
30.64154673449855
 20
2.3760431632893239
 11
30.288669036980341
 21
2.3172302137029698
  0
LINE
  8
_0-0_0
  6
CONTINUOUS
 62
    7
 10
30.288669036980341
 20
2.3172302137029698
 11
29.72406472095119
 21
2.470143882627525
  0
LINE
  8
_0-0_0
  6
CONTINUOUS
 62
    7
 10
29.72406472095119
 20
2.470143882627525
 11
29.312374073846598
 21
2.6818705011384609
  0
LINE
  8
_0-0_0
  6
CONTINUOUS
 62
    7
 10
29.312374073846598
 20
2.6818705011384609
 11
29.053597095666589
 21
2.893597119649371
  0
LINE
  8
_0-0_0
  6
CONTINUOUS
 62
    7
 10
29.053597095666589
 20
2.893597119649371
 11
28.724244577982918
 21
3.258237407084862
  0
LINE
  8
_0-0_0
  6
CONTINUOUS
 62
    7
 10
28.724244577982918
 20
3.258237407084862
 11
28.500755369554699
 21
3.6464028743549188
  0
LINE
  8
_0-0_0
  6
CONTINUOUS
 62
    7
 10
28.500755369554699
 20
3.6464028743549188
 11
28.40665465021653
 21
3.940467622286774
  0
LINE
  8
_0-0_0
  6
CONTINUOUS
 62
    7
 10
28.40665465021653
 20
3.940467622286774
 11
28.441942419968338
 21
4.199244600466784
  0
LINE
  8
_0-0_0
  6
CONTINUOUS
 62
    7
 10
28.441942419968338
 20
4.199244600466784
 11
28.53604313930651
 21
4.4344963988122572
  0
LINE
  8
_0-0_0
  6
CONTINUOUS
 62
    7
 10
28.53604313930651
 20
4.4344963988122572
 11
28.783057527569269
 21
4.7756115064132131
  0
LINE
  8
_0-0_0
  6
CONTINUOUS
 62
    7
 10
28.783057527569269
 20
4.7756115064132131
 11
29.182985584756579
 21
5.1167266140141389
  0
LINE
  8
_0-0_0
  6
CONTINUOUS
 62
    7
 10
29.182985584756579
 20
5.1167266140141389
 11
29.418237383102049
 21
5.1990647434350583
  0
LINE
  8
_0-0_0
  6
CONTINUOUS
 62
    7
 10
29.418237383102049
 20
5.1990647434350583
 11
29.665251771364811
 21
5.2343525131869048
  0
LINE
  8
_0-0_0
  6
CONTINUOUS
 62
    7
 10
29.665251771364811
 20
5.2343525131869048
 11
30.182805727724879
 21
5.0814388442623217
  0
LINE
  8
_0-0_0
  6
CONTINUOUS
 62
    7
 10
30.182805727724879
 20
5.0814388442623217
 11
30.42982011598761
 21
4.9520503551723322
  0
LINE
  8
_0-0_0
  6
CONTINUOUS
 62
    7
 10
30.42982011598761
 20
4.9520503551723322
 11
30.42982011598761
 21
4.9520503551723322
  0
LINE
  8
_0-0_0
  6
CONTINUOUS
 62
    7
 10
29.888740979793041
 20
5.7871942392987687
 11
30.735647453836751
 21
5.304928052690542
  0
LINE
  8
_0-0_0
  6
CONTINUOUS
 62
    7
 10
30.735647453836751
 20
5.304928052690542
 11
30.87679853284402
 21
5.1873021535178036
  0
LINE
  8
_0-0_0
  6
CONTINUOUS
 62
    7
 10
30.87679853284402
 20
5.1873021535178036
 11
31.406115079121349
 21
4.7403237366613941
  0
LINE
  8
_0-0_0
  6
CONTINUOUS
 62
    7
 10
31.406115079121349
 20
4.7403237366613941
 11
31.94719421531596
 21
4.1169064710458647
  0
LINE
  8
_0-0_0
  6
CONTINUOUS
 62
    7
 10
31.94719421531596
 20
4.1169064710458647
 11
32.147158243909629
 21
3.775791363444938
  0
LINE
  8
_0-0_0
  6
CONTINUOUS
 62
    7
 10
32.147158243909629
 20
3.775791363444938
 11
32.28830932291693
 21
3.3876258961748808
  0
LINE
  8
_0-0_0
  6
CONTINUOUS
 62
    7
 10
32.28830932291693
 20
3.3876258961748808
 11
32.323597092668727
 21
3.234712227250327
  0
LINE
  8
_0-0_0
  6
CONTINUOUS
 62
    7
 10
32.323597092668727
 20
3.234712227250327
 11
32.311834502751452
 21
2.7053956809729982
  0
LINE
  8
_0-0_0
  6
CONTINUOUS
 62
    7
 10
32.311834502751452
 20
2.7053956809729982
 11
32.13539565399234
 21
2.3054676237856881
  0
LINE
  8
_0-0_0
  6
CONTINUOUS
 62
    7
 10
32.13539565399234
 20
2.3054676237856881
 11
31.911906445564138
 21
2.0114028758538311
  0
LINE
  8
_0-0_0
  6
CONTINUOUS
 62
    7
 10
31.911906445564138
 20
2.0114028758538311
 11
31.559028748045928
 21
1.7173381279220039
  0
LINE
  8
_0-0_0
  6
CONTINUOUS
 62
    7
 10
31.559028748045928
 20
1.7173381279220039
 11
31.24143882027954
 21
1.59971222874924
  0
LINE
  8
_0-0_0
  6
CONTINUOUS
 62
    7
 10
31.24143882027954
 20
1.59971222874924
 11
30.888561122761299
 21
1.540899279162885
  0
LINE
  8
_0-0_0
  6
CONTINUOUS
 62
    7
 10
30.888561122761299
 20
1.540899279162885
 11
30.35924457648397
 21
1.6467625884183398
  0
LINE
  8
_0-0_0
  6
CONTINUOUS
 62
    7
 10
30.35924457648397
 20
1.6467625884183398
 11
30.01812946888306
 21
1.764388487591076
  0
LINE
  8
_0-0_0
  6
CONTINUOUS
 62
    7
 10
30.01812946888306
 20
1.764388487591076
 11
29.288848894012058
 21
2.1525539548611321
  0
LINE
  8
_0-0_0
  6
CONTINUOUS
 62
    7
 10
29.288848894012058
 20
2.1525539548611321
 11
28.583093498975621
 21
2.717158270890279
  0
LINE
  8
_0-0_0
  6
CONTINUOUS
 62
    7
 10
28.583093498975621
 20
2.717158270890279
 11
28.018489182946471
 21
3.2935251768367082
  0
LINE
  8
_0-0_0
  6
CONTINUOUS
 62
    7
 10
28.018489182946471
 20
3.2935251768367082
 11
27.84205033418738
 21
3.5523021550167181
  0
LINE
  8
_0-0_0
  6
CONTINUOUS
 62
    7
 10
27.84205033418738
 20
3.5523021550167181
 11
27.547985586255521
 21
4.1874820105495
  0
LINE
  8
_0-0_0
  6
CONTINUOUS
 62
    7
 10
27.547985586255521
 20
4.1874820105495
 11
27.500935226586431
 21
4.4227338088950025
  0
LINE
  8
_0-0_0
  6
CONTINUOUS
 62
    7
 10
27.500935226586431
 20
4.4227338088950025
 11
27.559748176172778
 21
4.8814748156686658
  0
LINE
  8
_0-0_0
  6
CONTINUOUS
 62
    7
 10
27.559748176172778
 20
4.8814748156686658
 11
27.736187024931901
 21
5.2343525131869048
  0
LINE
  8
_0-0_0
  6
CONTINUOUS
 62
    7
 10
27.736187024931901
 20
5.2343525131869048
 11
27.971438823277381
 21
5.5519424409532955
  0
LINE
  8
_0-0_0
  6
CONTINUOUS
 62
    7
 10
27.971438823277381
 20
5.5519424409532955
 11
28.253740981291951
 21
5.7401438796296702
  0
LINE
  8
_0-0_0
  6
CONTINUOUS
 62
    7
 10
28.253740981291951
 20
5.7401438796296702
 11
28.583093498975621
 21
5.9165827283887884
  0
LINE
  8
_0-0_0
  6
CONTINUOUS
 62
    7
 10
28.583093498975621
 20
5.9165827283887884
 11
28.853633067072941
 21
5.9753956779751407
  0
LINE
  8
_0-0_0
  6
CONTINUOUS
 62
    7
 10
28.853633067072941
 20
5.9753956779751407
 11
29.312374073846598
 21
5.9518704981406056
  0
LINE
  8
_0-0_0
  6
CONTINUOUS
 62
    7
 10
29.312374073846598
 20
5.9518704981406056
 11
29.888740979793041
 21
5.7871942392987687
  0
LINE
  8
_0-0_0
  6
CONTINUOUS
 62
    7
 10
29.888740979793041
 20
5.7871942392987687
 11
29.888740979793041
 21
5.7871942392987687
  0
LINE
  8
_0-0_0
  6
CONTINUOUS
 62
    7
 10
24.877877675034341
 20
7.586870496641664
 11
25.830647458333519
 21
7.198705029371637
  0
LINE
  8
_0-0_0
  6
CONTINUOUS
 62
    7
 10
25.830647458333519
 20
7.198705029371637
 11
26.018848897009888
 21
7.0810791301989022
  0
LINE
  8
_0-0_0
  6
CONTINUOUS
 62
    7
 10
26.018848897009888
 20
7.0810791301989022
 11
26.230575515520829
 21
6.857589921770681
  0
LINE
  8
_0-0_0
  6
CONTINUOUS
 62
    7
 10
26.230575515520829
 20
6.857589921770681
 11
26.265863285272651
 21
6.7282014326806907
  0
LINE
  8
_0-0_0
  6
CONTINUOUS
 62
    7
 10
26.265863285272651
 20
6.7282014326806907
 11
26.25410069535539
 21
6.469424454500654
  0
LINE
  8
_0-0_0
  6
CONTINUOUS
 62
    7
 10
26.25410069535539
 20
6.469424454500654
 11
26.171762565934468
 21
6.3165107855760993
  0
LINE
  8
_0-0_0
  6
CONTINUOUS
 62
    7
 10
26.171762565934468
 20
6.3165107855760993
 11
26.018848897009888
 21
6.1988848864033618
  0
LINE
  8
_0-0_0
  6
CONTINUOUS
 62
    7
 10
26.018848897009888
 20
6.1988848864033618
 11
25.713021559160779
 21
6.1753597065687966
  0
LINE
  8
_0-0_0
  6
CONTINUOUS
 62
    7
 10
25.713021559160779
 20
6.1753597065687966
 11
25.313093501973469
 21
6.269460425906999
  0
LINE
  8
_0-0_0
  6
CONTINUOUS
 62
    7
 10
25.313093501973469
 20
6.269460425906999
 11
24.207410049749739
 21
6.7046762528461281
  0
LINE
  8
_0-0_0
  6
CONTINUOUS
 62
    7
 10
24.207410049749739
 20
6.7046762528461281
 11
23.842769762314219
 21
6.8458273318534281
  0
LINE
  8
_0-0_0
  6
CONTINUOUS
 62
    7
 10
23.842769762314219
 20
6.8458273318534281
 11
23.7604316328933
 21
6.9634532310261629
  0
LINE
  8
_0-0_0
  6
CONTINUOUS
 62
    7
 10
23.7604316328933
 20
6.9634532310261629
 11
23.795719402645151
 21
7.175179849537101
  0
LINE
  8
_0-0_0
  6
CONTINUOUS
 62
    7
 10
23.795719402645151
 20
7.175179849537101
 11
24.019208611073338
 21
7.7162589857316827
  0
LINE
  8
_0-0_0
  6
CONTINUOUS
 62
    7
 10
24.019208611073338
 20
7.7162589857316827
 11
24.113309330411539
 21
7.7985971151526021
  0
LINE
  8
_0-0_0
  6
CONTINUOUS
 62
    7
 10
24.113309330411539
 20
7.7985971151526021
 11
24.14859710016336
 21
7.8221222949871682
  0
LINE
  8
_0-0_0
  6
CONTINUOUS
 62
    7
 10
24.14859710016336
 20
7.8221222949871682
 11
24.360323718674301
 21
7.7985971151526021
  0
LINE
  8
_0-0_0
  6
CONTINUOUS
 62
    7
 10
24.360323718674301
 20
7.7985971151526021
 11
24.877877675034341
 21
7.586870496641664
  0
LINE
  8
_0-0_0
  6
CONTINUOUS
 62
    7
 10
24.877877675034341
 20
7.586870496641664
 11
24.877877675034341
 21
7.586870496641664
  0
LINE
  8
_0-0_0
  6
CONTINUOUS
 62
    7
 10
23.713381273224229
 20
8.527877690023585
 11
23.901582711900598
 21
8.4690647404372327
  0
LINE
  8
_0-0_0
  6
CONTINUOUS
 62
    7
 10
23.901582711900598
 20
8.4690647404372327
 11
24.14859710016336
 21
8.3632014311817481
  0
LINE
  8
_0-0_0
  6
CONTINUOUS
 62
    7
 10
24.14859710016336
 20
8.3632014311817481
 11
24.289748179170629
 21
8.2926258916781101
  0
LINE
  8
_0-0_0
  6
CONTINUOUS
 62
    7
 10
24.289748179170629
 20
8.2926258916781101
 11
24.560287747267949
 21
8.198525172339913
  0
LINE
  8
_0-0_0
  6
CONTINUOUS
 62
    7
 10
24.560287747267949
 20
8.198525172339913
 11
26.665791342459961
 21
7.3869064680480089
  0
LINE
  8
_0-0_0
  6
CONTINUOUS
 62
    7
 10
26.665791342459961
 20
7.3869064680480089
 11
27.206870478654568
 21
6.975215820943446
  0
LINE
  8
_0-0_0
  6
CONTINUOUS
 62
    7
 10
27.206870478654568
 20
6.975215820943446
 11
27.40683450724822
 21
6.7282014326806907
  0
LINE
  8
_0-0_0
  6
CONTINUOUS
 62
    7
 10
27.40683450724822
 20
6.7282014326806907
 11
27.547985586255521
 21
6.3753237351624516
  0
LINE
  8
_0-0_0
  6
CONTINUOUS
 62
    7
 10
27.547985586255521
 20
6.3753237351624516
 11
27.536222996338238
 21
6.128309346899698
  0
LINE
  8
_0-0_0
  6
CONTINUOUS
 62
    7
 10
27.536222996338238
 20
6.128309346899698
 11
27.40683450724822
 21
5.8460071888851228
  0
LINE
  8
_0-0_0
  6
CONTINUOUS
 62
    7
 10
27.40683450724822
 20
5.8460071888851228
 11
27.183345298820039
 21
5.6813309300433161
  0
LINE
  8
_0-0_0
  6
CONTINUOUS
 62
    7
 10
27.183345298820039
 20
5.6813309300433161
 11
26.995143860143631
 21
5.5872302107051146
  0
LINE
  8
_0-0_0
  6
CONTINUOUS
 62
    7
 10
26.995143860143631
 20
5.5872302107051146
 11
26.736366881963618
 21
5.504892081284197
  0
LINE
  8
_0-0_0
  6
CONTINUOUS
 62
    7
 10
26.736366881963618
 20
5.504892081284197
 11
26.124712206265371
 21
5.4931294913669139
  0
LINE
  8
_0-0_0
  6
CONTINUOUS
 62
    7
 10
26.124712206265371
 20
5.4931294913669139
 11
26.03061148692717
 21
5.3872661821114586
  0
LINE
  8
_0-0_0
  6
CONTINUOUS
 62
    7
 10
26.03061148692717
 20
5.3872661821114586
 11
26.065899256678989
 21
5.1520143837659873
  0
LINE
  8
_0-0_0
  6
CONTINUOUS
 62
    7
 10
26.065899256678989
 20
5.1520143837659873
 11
26.41877695419723
 21
4.3521582693913369
  0
LINE
  8
_0-0_0
  6
CONTINUOUS
 62
    7
 10
26.41877695419723
 20
4.3521582693913369
 11
26.53640285336996
 21
4.0228057517076933
  0
LINE
  8
_0-0_0
  6
CONTINUOUS
 62
    7
 10
26.53640285336996
 20
4.0228057517076933
 11
26.53640285336996
 21
3.9522302122040278
  0
LINE
  8
_0-0_0
  6
CONTINUOUS
 62
    7
 10
26.53640285336996
 20
3.9522302122040278
 11
26.430539544114481
 21
3.9639928021213099
  0
LINE
  8
_0-0_0
  6
CONTINUOUS
 62
    7
 10
26.430539544114481
 20
3.9639928021213099
 11
26.007086307092631
 21
4.1521942407976819
  0
LINE
  8
_0-0_0
  6
CONTINUOUS
 62
    7
 10
26.007086307092631
 20
4.1521942407976819
 11
25.50129494064987
 21
4.4109712189777221
  0
LINE
  8
_0-0_0
  6
CONTINUOUS
 62
    7
 10
25.50129494064987
 20
4.4109712189777221
 11
25.360143861642569
 21
4.669748197157757
  0
LINE
  8
_0-0_0
  6
CONTINUOUS
 62
    7
 10
25.360143861642569
 20
4.669748197157757
 11
24.913165444786159
 21
5.881294958636972
  0
LINE
  8
_0-0_0
  6
CONTINUOUS
 62
    7
 10
24.913165444786159
 20
5.881294958636972
 11
24.760251775861611
 21
6.034208627561524
  0
LINE
  8
_0-0_0
  6
CONTINUOUS
 62
    7
 10
24.760251775861611
 20
6.034208627561524
 11
24.207410049749739
 21
6.23417265615518
  0
LINE
  8
_0-0_0
  6
CONTINUOUS
 62
    7
 10
24.207410049749739
 20
6.23417265615518
 11
23.93687048165242
 21
6.3635611452451978
  0
LINE
  8
_0-0_0
  6
CONTINUOUS
 62
    7
 10
23.93687048165242
 20
6.3635611452451978
 11
23.619280553886028
 21
6.4458992746661172
  0
LINE
  8
_0-0_0
  6
CONTINUOUS
 62
    7
 10
23.619280553886028
 20
6.4458992746661172
 11
23.489892064796009
 21
6.410611504914299
  0
LINE
  8
_0-0_0
  6
CONTINUOUS
 62
    7
 10
23.489892064796009
 20
6.410611504914299
 11
23.301690626119651
 21
6.022446037644241
  0
LINE
  8
_0-0_0
  6
CONTINUOUS
 62
    7
 10
23.301690626119651
 20
6.022446037644241
 11
23.07820141769142
 21
5.4931294913669139
  0
LINE
  8
_0-0_0
  6
CONTINUOUS
 62
    7
 10
23.07820141769142
 20
5.4931294913669139
 11
22.995863288270509
 21
5.4107913619459964
  0
LINE
  8
_0-0_0
  6
CONTINUOUS
 62
    7
 10
22.995863288270509
 20
5.4107913619459964
 11
22.878237389097758
 21
5.4107913619459964
  0
LINE
  8
_0-0_0
  6
CONTINUOUS
 62
    7
 10
22.878237389097758
 20
5.4107913619459964
 11
22.243057533564979
 21
5.6225179804569327
  0
LINE
  8
_0-0_0
  6
CONTINUOUS
 62
    7
 10
22.243057533564979
 20
5.6225179804569327
 11
22.148956814226778
 21
5.7166186997951342
  0
LINE
  8
_0-0_0
  6
CONTINUOUS
 62
    7
 10
22.148956814226778
 20
5.7166186997951342
 11
22.18424458397861
 21
5.8460071888851228
  0
LINE
  8
_0-0_0
  6
CONTINUOUS
 62
    7
 10
22.18424458397861
 20
5.8460071888851228
 11
22.419496382324091
 21
6.4458992746661172
  0
LINE
  8
_0-0_0
  6
CONTINUOUS
 62
    7
 10
22.419496382324091
 20
6.4458992746661172
 11
22.666510770586839
 21
7.057553950364336
  0
LINE
  8
_0-0_0
  6
CONTINUOUS
 62
    7
 10
22.666510770586839
 20
7.057553950364336
 11
22.901762568932308
 21
7.610395676476231
  0
LINE
  8
_0-0_0
  6
CONTINUOUS
 62
    7
 10
22.901762568932308
 20
7.610395676476231
 11
23.089964007608699
 21
8.1397122227535572
  0
LINE
  8
_0-0_0
  6
CONTINUOUS
 62
    7
 10
23.089964007608699
 20
8.1397122227535572
 11
23.289928036202361
 21
8.5984532295272231
  0
LINE
  8
_0-0_0
  6
CONTINUOUS
 62
    7
 10
23.289928036202361
 20
8.5984532295272231
 11
23.325215805954169
 21
8.6572661791136056
  0
LINE
  8
_0-0_0
  6
CONTINUOUS
 62
    7
 10
23.325215805954169
 20
8.6572661791136056
 11
23.501654654713288
 21
8.6219784093617874
  0
LINE
  8
_0-0_0
  6
CONTINUOUS
 62
    7
 10
23.501654654713288
 20
8.6219784093617874
 11
23.713381273224229
 21
8.527877690023585
  0
LINE
  8
_0-0_0
  6
CONTINUOUS
 62
    7
 10
23.713381273224229
 20
8.527877690023585
 11
23.713381273224229
 21
8.527877690023585
  0
LINE
  8
_0-0_0
  6
CONTINUOUS
 62
    7
 10
21.948992785633119
 20
8.892517977459077
 11
21.913705015881308
 21
8.6219784093617874
  0
LINE
  8
_0-0_0
  6
CONTINUOUS
 62
    7
 10
21.913705015881308
 20
8.6219784093617874
 11
21.819604296543118
 21
8.3749640210990321
  0
LINE
  8
_0-0_0
  6
CONTINUOUS
 62
    7
 10
21.819604296543118
 20
8.3749640210990321
 11
21.725503577204928
 21
7.8456474748217024
  0
LINE
  8
_0-0_0
  6
CONTINUOUS
 62
    7
 10
21.725503577204928
 20
7.8456474748217024
 11
21.701978397370378
 21
7.7633093454007831
  0
LINE
  8
_0-0_0
  6
CONTINUOUS
 62
    7
 10
21.701978397370378
 20
7.7633093454007831
 11
21.607877678032181
 21
7.233992799123456
  0
LINE
  8
_0-0_0
  6
CONTINUOUS
 62
    7
 10
21.607877678032181
 20
7.233992799123456
 11
21.537302138528538
 21
6.8928776915225267
  0
LINE
  8
_0-0_0
  6
CONTINUOUS
 62
    7
 10
21.537302138528538
 20
6.8928776915225267
 11
21.490251778859448
 21
6.7282014326806907
  0
LINE
  8
_0-0_0
  6
CONTINUOUS
 62
    7
 10
21.490251778859448
 20
6.7282014326806907
 11
21.38438846960398
 21
5.9989208578097059
  0
LINE
  8
_0-0_0
  6
CONTINUOUS
 62
    7
 10
21.38438846960398
 20
5.9989208578097059
 11
21.349100699852158
 21
5.9165827283887884
  0
LINE
  8
_0-0_0
  6
CONTINUOUS
 62
    7
 10
21.349100699852158
 20
5.9165827283887884
 11
21.302050340183061
 21
5.893057548554224
  0
LINE
  8
_0-0_0
  6
CONTINUOUS
 62
    7
 10
21.302050340183061
 20
5.893057548554224
 11
20.537481995560259
 21
5.9989208578097059
  0
LINE
  8
_0-0_0
  6
CONTINUOUS
 62
    7
 10
20.537481995560259
 20
5.9989208578097059
 11
20.372805736718419
 21
6.0577338073960609
  0
LINE
  8
_0-0_0
  6
CONTINUOUS
 62
    7
 10
20.372805736718419
 20
6.0577338073960609
 11
20.325755377049329
 21
6.0930215771478781
  0
LINE
  8
_0-0_0
  6
CONTINUOUS
 62
    7
 10
20.325755377049329
 20
6.0930215771478781
 11
20.502194225808441
 21
7.022266180612517
  0
LINE
  8
_0-0_0
  6
CONTINUOUS
 62
    7
 10
20.502194225808441
 20
7.022266180612517
 11
20.608057535063888
 21
7.563345316807128
  0
LINE
  8
_0-0_0
  6
CONTINUOUS
 62
    7
 10
20.608057535063888
 20
7.563345316807128
 11
20.91388487291303
 21
9.1160071858872981
  0
LINE
  8
_0-0_0
  6
CONTINUOUS
 62
    7
 10
20.91388487291303
 20
9.1160071858872981
 11
21.03151077208577
 21
9.1512949556391163
  0
LINE
  8
_0-0_0
  6
CONTINUOUS
 62
    7
 10
21.03151077208577
 20
9.1512949556391163
 11
21.913705015881308
 21
8.974856106879999
  0
LINE
  8
_0-0_0
  6
CONTINUOUS
 62
    7
 10
21.913705015881308
 20
8.974856106879999
 11
21.948992785633119
 21
8.892517977459077
  0
LINE
  8
_0-0_0
  6
CONTINUOUS
 62
    7
 10
21.948992785633119
 20
8.892517977459077
 11
21.948992785633119
 21
8.892517977459077
  0
LINE
  8
_0-0_0
  6
CONTINUOUS
 62
    7
 10
15.644244589974299
 20
9.704136681750981
 11
15.65600717989159
 21
6.7046762528461281
  0
LINE
  8
_0-0_0
  6
CONTINUOUS
 62
    7
 10
15.65600717989159
 20
6.7046762528461281
 11
15.667769769808849
 21
6.1753597065687966
  0
LINE
  8
_0-0_0
  6
CONTINUOUS
 62
    7
 10
15.667769769808849
 20
6.1753597065687966
 11
15.703057539560669
 21
5.7754316493814865
  0
LINE
  8
_0-0_0
  6
CONTINUOUS
 62
    7
 10
15.703057539560669
 20
5.7754316493814865
 11
15.832446028650689
 21
5.6695683401260312
  0
LINE
  8
_0-0_0
  6
CONTINUOUS
 62
    7
 10
15.832446028650689
 20
5.6695683401260312
 11
16.738165452280778
 21
5.6695683401260312
  0
LINE
  8
_0-0_0
  6
CONTINUOUS
 62
    7
 10
16.738165452280778
 20
5.6695683401260312
 11
17.373345307813579
 21
5.6225179804569327
  0
LINE
  8
_0-0_0
  6
CONTINUOUS
 62
    7
 10
17.373345307813579
 20
5.6225179804569327
 11
17.561546746489959
 21
5.6225179804569327
  0
LINE
  8
_0-0_0
  6
CONTINUOUS
 62
    7
 10
17.561546746489959
 20
5.6225179804569327
 11
17.702697825497239
 21
5.6695683401260312
  0
LINE
  8
_0-0_0
  6
CONTINUOUS
 62
    7
 10
17.702697825497239
 20
5.6695683401260312
 11
17.785035954918161
 21
5.7871942392987687
  0
LINE
  8
_0-0_0
  6
CONTINUOUS
 62
    7
 10
17.785035954918161
 20
5.7871942392987687
 11
17.832086314587261
 21
6.4458992746661172
  0
LINE
  8
_0-0_0
  6
CONTINUOUS
 62
    7
 10
17.832086314587261
 20
6.4458992746661172
 11
17.820323724669968
 21
7.034028770529801
  0
LINE
  8
_0-0_0
  6
CONTINUOUS
 62
    7
 10
17.820323724669968
 20
7.034028770529801
 11
17.796798544835439
 21
7.610395676476231
  0
LINE
  8
_0-0_0
  6
CONTINUOUS
 62
    7
 10
17.796798544835439
 20
7.610395676476231
 11
17.796798544835439
 21
7.7985971151526021
  0
LINE
  8
_0-0_0
  6
CONTINUOUS
 62
    7
 10
17.796798544835439
 20
7.7985971151526021
 11
17.820323724669968
 21
8.7160791286999597
  0
LINE
  8
_0-0_0
  6
CONTINUOUS
 62
    7
 10
17.820323724669968
 20
8.7160791286999597
 11
17.820323724669968
 21
9.739424451502801
  0
LINE
  8
_0-0_0
  6
CONTINUOUS
 62
    7
 10
17.820323724669968
 20
9.739424451502801
 11
17.84384890450454
 21
9.7864748111718995
  0
LINE
  8
_0-0_0
  6
CONTINUOUS
 62
    7
 10
17.84384890450454
 20
9.7864748111718995
 11
19.149496385321938
 21
9.7864748111718995
  0
LINE
  8
_0-0_0
  6
CONTINUOUS
 62
    7
 10
19.149496385321938
 20
9.7864748111718995
 11
19.20830933490831
 21
9.704136681750981
  0
LINE
  8
_0-0_0
  6
CONTINUOUS
 62
    7
 10
19.20830933490831
 20
9.704136681750981
 11
19.23183451474286
 21
6.3753237351624516
  0
LINE
  8
_0-0_0
  6
CONTINUOUS
 62
    7
 10
19.23183451474286
 20
6.3753237351624516
 11
19.23183451474286
 21
5.069676254345067
  0
LINE
  8
_0-0_0
  6
CONTINUOUS
 62
    7
 10
19.23183451474286
 20
5.069676254345067
 11
19.243597104660121
 21
2.470143882627525
  0
LINE
  8
_0-0_0
  6
CONTINUOUS
 62
    7
 10
19.243597104660121
 20
2.470143882627525
 11
19.243597104660121
 21
0.4940287765255106
  0
LINE
  8
_0-0_0
  6
CONTINUOUS
 62
    7
 10
19.243597104660121
 20
0.4940287765255106
 11
19.20830933490831
 21
0.3646402874354919
  0
LINE
  8
_0-0_0
  6
CONTINUOUS
 62
    7
 10
19.20830933490831
 20
0.3646402874354919
 11
19.20830933490831
 21
0.3528776975182096
  0
LINE
  8
_0-0_0
  6
CONTINUOUS
 62
    7
 10
19.20830933490831
 20
0.3528776975182096
 11
18.902481997059179
 21
0.3058273378491094
  0
LINE
  8
_0-0_0
  6
CONTINUOUS
 62
    7
 10
18.902481997059179
 20
0.3058273378491094
 11
17.93794962384273
 21
0.3293525176836737
  0
LINE
  8
_0-0_0
  6
CONTINUOUS
 62
    7
 10
17.93794962384273
 20
0.3293525176836737
 11
17.879136674256361
 21
0.4352158269391281
  0
LINE
  8
_0-0_0
  6
CONTINUOUS
 62
    7
 10
17.879136674256361
 20
0.4352158269391281
 11
17.8556114944218
 21
1.023345322802839
  0
LINE
  8
_0-0_0
  6
CONTINUOUS
 62
    7
 10
17.8556114944218
 20
1.023345322802839
 11
17.820323724669968
 21
3.199424457498508
  0
LINE
  8
_0-0_0
  6
CONTINUOUS
 62
    7
 10
17.820323724669968
 20
3.199424457498508
 11
17.820323724669968
 21
3.4934892054303641
  0
LINE
  8
_0-0_0
  6
CONTINUOUS
 62
    7
 10
17.820323724669968
 20
3.4934892054303641
 11
17.796798544835439
 21
3.999280571873129
  0
LINE
  8
_0-0_0
  6
CONTINUOUS
 62
    7
 10
17.796798544835439
 20
3.999280571873129
 11
17.737985595249071
 21
4.1169064710458647
  0
LINE
  8
_0-0_0
  6
CONTINUOUS
 62
    7
 10
17.737985595249071
 20
4.1169064710458647
 11
17.620359696076331
 21
4.1874820105495
  0
LINE
  8
_0-0_0
  6
CONTINUOUS
 62
    7
 10
17.620359696076331
 20
4.1874820105495
 11
15.82068343873342
 21
4.1757194206322481
  0
LINE
  8
_0-0_0
  6
CONTINUOUS
 62
    7
 10
15.82068343873342
 20
4.1757194206322481
 11
15.71482012947796
 21
4.0345683416249462
  0
LINE
  8
_0-0_0
  6
CONTINUOUS
 62
    7
 10
15.71482012947796
 20
4.0345683416249462
 11
15.667769769808849
 21
3.7287410037758359
  0
LINE
  8
_0-0_0
  6
CONTINUOUS
 62
    7
 10
15.667769769808849
 20
3.7287410037758359
 11
15.67953235972614
 21
3.0700359684084901
  0
LINE
  8
_0-0_0
  6
CONTINUOUS
 62
    7
 10
15.67953235972614
 20
3.0700359684084901
 11
15.667769769808849
 21
2.1878417246129511
  0
LINE
  8
_0-0_0
  6
CONTINUOUS
 62
    7
 10
15.667769769808849
 20
2.1878417246129511
 11
15.667769769808849
 21
0.4352158269391281
  0
LINE
  8
_0-0_0
  6
CONTINUOUS
 62
    7
 10
15.667769769808849
 20
0.4352158269391281
 11
15.62071941013977
 21
0.3528776975182096
  0
LINE
  8
_0-0_0
  6
CONTINUOUS
 62
    7
 10
15.62071941013977
 20
0.3528776975182096
 11
15.150215813448809
 21
0.3175899277663916
  0
LINE
  8
_0-0_0
  6
CONTINUOUS
 62
    7
 10
15.150215813448809
 20
0.3175899277663916
 11
14.82086329576513
 21
0.3293525176836737
  0
LINE
  8
_0-0_0
  6
CONTINUOUS
 62
    7
 10
14.82086329576513
 20
0.3293525176836737
 11
14.738525166344219
 21
0.4234532370218745
  0
LINE
  8
_0-0_0
  6
CONTINUOUS
 62
    7
 10
14.738525166344219
 20
0.4234532370218745
 11
14.726762576426949
 21
2.434856112875706
  0
LINE
  8
_0-0_0
  6
CONTINUOUS
 62
    7
 10
14.726762576426949
 20
2.434856112875706
 11
14.714999986509669
 21
4.563884887902275
  0
LINE
  8
_0-0_0
  6
CONTINUOUS
 62
    7
 10
14.714999986509669
 20
4.563884887902275
 11
14.714999986509669
 21
9.7276618615855436
  0
LINE
  8
_0-0_0
  6
CONTINUOUS
 62
    7
 10
14.714999986509669
 20
9.7276618615855436
 11
14.726762576426949
 21
9.7864748111718995
  0
LINE
  8
_0-0_0
  6
CONTINUOUS
 62
    7
 10
14.726762576426949
 20
9.7864748111718995
 11
14.79733811593058
 21
9.8217625809237176
  0
LINE
  8
_0-0_0
  6
CONTINUOUS
 62
    7
 10
14.79733811593058
 20
9.8217625809237176
 11
15.585431640387939
 21
9.7864748111718995
  0
LINE
  8
_0-0_0
  6
CONTINUOUS
 62
    7
 10
15.585431640387939
 20
9.7864748111718995
 11
15.644244589974299
 21
9.704136681750981
  0
LINE
  8
_0-0_0
  6
CONTINUOUS
 62
    7
 10
15.644244589974299
 20
9.704136681750981
 11
15.644244589974299
 21
9.704136681750981
  0
LINE
  8
_0-0_0
  6
CONTINUOUS
 62
    7
 10
13.70341725362411
 20
9.0219064665490957
 11
13.70341725362411
 21
8.8337050278727247
  0
LINE
  8
_0-0_0
  6
CONTINUOUS
 62
    7
 10
13.70341725362411
 20
8.8337050278727247
 11
13.60931653428592
 21
8.7866546682036243
  0
LINE
  8
_0-0_0
  6
CONTINUOUS
 62
    7
 10
13.60931653428592
 20
8.7866546682036243
 11
13.23291365693316
 21
8.7278417186172401
  0
LINE
  8
_0-0_0
  6
CONTINUOUS
 62
    7
 10
13.23291365693316
 20
8.7278417186172401
 11
12.56244603164855
 21
8.6102158194445053
  0
LINE
  8
_0-0_0
  6
CONTINUOUS
 62
    7
 10
12.56244603164855
 20
8.6102158194445053
 11
12.36248200305488
 21
8.5866906396099693
  0
LINE
  8
_0-0_0
  6
CONTINUOUS
 62
    7
 10
12.36248200305488
 20
8.5866906396099693
 11
11.58615106851481
 21
8.4337769706854146
  0
LINE
  8
_0-0_0
  6
CONTINUOUS
 62
    7
 10
11.58615106851481
 20
8.4337769706854146
 11
11.3626618600866
 21
8.3279136614299318
  0
LINE
  8
_0-0_0
  6
CONTINUOUS
 62
    7
 10
11.3626618600866
 20
8.3279136614299318
 11
11.068597112154739
 21
8.1279496328362768
  0
LINE
  8
_0-0_0
  6
CONTINUOUS
 62
    7
 10
11.068597112154739
 20
8.1279496328362768
 11
10.950971212982009
 21
7.904460424408084
  0
LINE
  8
_0-0_0
  6
CONTINUOUS
 62
    7
 10
10.950971212982009
 20
7.904460424408084
 11
10.892158263395639
 21
7.586870496641664
  0
LINE
  8
_0-0_0
  6
CONTINUOUS
 62
    7
 10
10.892158263395639
 20
7.586870496641664
 11
10.93920862306474
 21
7.4457194176343932
  0
LINE
  8
_0-0_0
  6
CONTINUOUS
 62
    7
 10
10.93920862306474
 20
7.4457194176343932
 11
11.05683452223748
 21
7.363381288213473
  0
LINE
  8
_0-0_0
  6
CONTINUOUS
 62
    7
 10
11.05683452223748
 20
7.363381288213473
 11
11.256798550831129
 21
7.375143878130757
  0
LINE
  8
_0-0_0
  6
CONTINUOUS
 62
    7
 10
11.256798550831129
 20
7.375143878130757
 11
11.49205034917662
 21
7.4221942377998271
  0
LINE
  8
_0-0_0
  6
CONTINUOUS
 62
    7
 10
11.49205034917662
 20
7.4221942377998271
 11
12.138992794626689
 21
7.5515827268898467
  0
LINE
  8
_0-0_0
  6
CONTINUOUS
 62
    7
 10
12.138992794626689
 20
7.5515827268898467
 11
13.621079124203189
 21
7.8221222949871682
  0
LINE
  8
_0-0_0
  6
CONTINUOUS
 62
    7
 10
13.621079124203189
 20
7.8221222949871682
 11
13.82104315279685
 21
7.8456474748217024
  0
LINE
  8
_0-0_0
  6
CONTINUOUS
 62
    7
 10
13.82104315279685
 20
7.8456474748217024
 11
13.879856102383229
 21
7.8456474748217024
  0
LINE
  8
_0-0_0
  6
CONTINUOUS
 62
    7
 10
13.879856102383229
 20
7.8456474748217024
 11
13.95043164188686
 21
7.704496395814429
  0
LINE
  8
_0-0_0
  6
CONTINUOUS
 62
    7
 10
13.95043164188686
 20
7.704496395814429
 11
13.962194231804149
 21
7.539820136972593
  0
LINE
  8
_0-0_0
  6
CONTINUOUS
 62
    7
 10
13.962194231804149
 20
7.539820136972593
 11
13.95043164188686
 21
7.4927697773034909
  0
LINE
  8
_0-0_0
  6
CONTINUOUS
 62
    7
 10
13.95043164188686
 20
7.4927697773034909
 11
13.83280574271413
 21
7.433956827717111
  0
LINE
  8
_0-0_0
  6
CONTINUOUS
 62
    7
 10
13.83280574271413
 20
7.433956827717111
 11
12.997661858587669
 21
7.2928057487098376
  0
LINE
  8
_0-0_0
  6
CONTINUOUS
 62
    7
 10
12.997661858587669
 20
7.2928057487098376
 11
12.174280564378509
 21
7.1398920797852554
  0
LINE
  8
_0-0_0
  6
CONTINUOUS
 62
    7
 10
12.174280564378509
 20
7.1398920797852554
 11
11.856690636612109
 21
7.1163668999507176
  0
LINE
  8
_0-0_0
  6
CONTINUOUS
 62
    7
 10
11.856690636612109
 20
7.1163668999507176
 11
11.44499998950752
 21
7.022266180612517
  0
LINE
  8
_0-0_0
  6
CONTINUOUS
 62
    7
 10
11.44499998950752
 20
7.022266180612517
 11
11.15093524157567
 21
6.975215820943446
  0
LINE
  8
_0-0_0
  6
CONTINUOUS
 62
    7
 10
11.15093524157567
 20
6.975215820943446
 11
11.05683452223748
 21
6.857589921770681
  0
LINE
  8
_0-0_0
  6
CONTINUOUS
 62
    7
 10
11.05683452223748
 20
6.857589921770681
 11
11.02154675248566
 21
6.7282014326806907
  0
LINE
  8
_0-0_0
  6
CONTINUOUS
 62
    7
 10
11.02154675248566
 20
6.7282014326806907
 11
11.0921222919893
 21
6.5517625839215707
  0
LINE
  8
_0-0_0
  6
CONTINUOUS
 62
    7
 10
11.0921222919893
 20
6.5517625839215707
 11
11.44499998950752
 21
6.245935246072463
  0
LINE
  8
_0-0_0
  6
CONTINUOUS
 62
    7
 10
11.44499998950752
 20
6.245935246072463
 11
11.597913658432069
 21
6.1753597065687966
  0
LINE
  8
_0-0_0
  6
CONTINUOUS
 62
    7
 10
11.597913658432069
 20
6.1753597065687966
 11
11.89197840636393
 21
6.128309346899698
  0
LINE
  8
_0-0_0
  6
CONTINUOUS
 62
    7
 10
11.89197840636393
 20
6.128309346899698
 11
12.938848909001309
 21
6.292985605741534
  0
LINE
  8
_0-0_0
  6
CONTINUOUS
 62
    7
 10
12.938848909001309
 20
6.292985605741534
 11
13.43287768552682
 21
6.3753237351624516
  0
LINE
  8
_0-0_0
  6
CONTINUOUS
 62
    7
 10
13.43287768552682
 20
6.3753237351624516
 11
13.66812948387229
 21
6.410611504914299
  0
LINE
  8
_0-0_0
  6
CONTINUOUS
 62
    7
 10
13.66812948387229
 20
6.410611504914299
 11
14.03276977130778
 21
6.49294963433519
  0
LINE
  8
_0-0_0
  6
CONTINUOUS
 62
    7
 10
14.03276977130778
 20
6.49294963433519
 11
14.1151079007287
 21
6.469424454500654
  0
LINE
  8
_0-0_0
  6
CONTINUOUS
 62
    7
 10
14.1151079007287
 20
6.469424454500654
 11
14.18568344023234
 21
6.3282733754933522
  0
LINE
  8
_0-0_0
  6
CONTINUOUS
 62
    7
 10
14.18568344023234
 20
6.3282733754933522
 11
14.20920862006689
 21
6.1871222964860788
  0
LINE
  8
_0-0_0
  6
CONTINUOUS
 62
    7
 10
14.20920862006689
 20
6.1871222964860788
 11
14.17392085031507
 21
6.0930215771478781
  0
LINE
  8
_0-0_0
  6
CONTINUOUS
 62
    7
 10
14.17392085031507
 20
6.0930215771478781
 11
13.79751797296231
 21
6.022446037644241
  0
LINE
  8
_0-0_0
  6
CONTINUOUS
 62
    7
 10
13.79751797296231
 20
6.022446037644241
 11
12.96237408883586
 21
5.8577697788024059
  0
LINE
  8
_0-0_0
  6
CONTINUOUS
 62
    7
 10
12.96237408883586
 20
5.8577697788024059
 11
12.291906463551239
 21
5.7754316493814865
  0
LINE
  8
_0-0_0
  6
CONTINUOUS
 62
    7
 10
12.291906463551239
 20
5.7754316493814865
 11
12.09194243495758
 21
5.7166186997951342
  0
LINE
  8
_0-0_0
  6
CONTINUOUS
 62
    7
 10
12.09194243495758
 20
5.7166186997951342
 11
11.9037409962812
 21
5.7166186997951342
  0
LINE
  8
_0-0_0
  6
CONTINUOUS
 62
    7
 10
11.9037409962812
 20
5.7166186997951342
 11
11.44499998950752
 21
5.6695683401260312
  0
LINE
  8
_0-0_0
  6
CONTINUOUS
 62
    7
 10
11.44499998950752
 20
5.6695683401260312
 11
10.774532364222899
 21
5.7636690594642052
  0
LINE
  8
_0-0_0
  6
CONTINUOUS
 62
    7
 10
10.774532364222899
 20
5.7636690594642052
 11
10.551043155794699
 21
5.8460071888851228
  0
LINE
  8
_0-0_0
  6
CONTINUOUS
 62
    7
 10
10.551043155794699
 20
5.8460071888851228
 11
10.139352508690109
 21
6.1753597065687966
  0
LINE
  8
_0-0_0
  6
CONTINUOUS
 62
    7
 10
10.139352508690109
 20
6.1753597065687966
 11
9.9158633002619183
 21
6.4458992746661172
  0
LINE
  8
_0-0_0
  6
CONTINUOUS
 62
    7
 10
9.9158633002619183
 20
6.4458992746661172
 11
9.7629496313373476
 21
7.433956827717111
  0
LINE
  8
_0-0_0
  6
CONTINUOUS
 62
    7
 10
9.7629496313373476
 20
7.433956827717111
 11
9.8923381204273681
 21
7.8338848849044202
  0
LINE
  8
_0-0_0
  6
CONTINUOUS
 62
    7
 10
9.8923381204273681
 20
7.8338848849044202
 11
10.057014379269199
 21
8.1397122227535572
  0
LINE
  8
_0-0_0
  6
CONTINUOUS
 62
    7
 10
10.057014379269199
 20
8.1397122227535572
 11
10.492230206208329
 21
8.4808273303544865
  0
LINE
  8
_0-0_0
  6
CONTINUOUS
 62
    7
 10
10.492230206208329
 20
8.4808273303544865
 11
11.11564747182385
 21
8.7748920782863422
  0
LINE
  8
_0-0_0
  6
CONTINUOUS
 62
    7
 10
11.11564747182385
 20
8.7748920782863422
 11
12.174280564378509
 21
8.9513309270454612
  0
LINE
  8
_0-0_0
  6
CONTINUOUS
 62
    7
 10
12.174280564378509
 20
8.9513309270454612
 11
12.5859712114831
 21
9.0336690564663797
  0
LINE
  8
_0-0_0
  6
CONTINUOUS
 62
    7
 10
12.5859712114831
 20
9.0336690564663797
 11
13.479928045195899
 21
9.1983453153082166
  0
LINE
  8
_0-0_0
  6
CONTINUOUS
 62
    7
 10
13.479928045195899
 20
9.1983453153082166
 11
13.503453225030449
 21
9.2101079052254704
  0
LINE
  8
_0-0_0
  6
CONTINUOUS
 62
    7
 10
13.503453225030449
 20
9.2101079052254704
 11
13.621079124203189
 21
9.1865827253909344
  0
LINE
  8
_0-0_0
  6
CONTINUOUS
 62
    7
 10
13.621079124203189
 20
9.1865827253909344
 11
13.70341725362411
 21
9.0219064665490957
  0
LINE
  8
_0-0_0
  6
CONTINUOUS
 62
    7
 10
13.70341725362411
 20
9.0219064665490957
 11
13.70341725362411
 21
9.0219064665490957
  0
LINE
  8
_0-0_0
  6
CONTINUOUS
 62
    7
 10
8.8337050278727122
 20
7.8809352445735205
 11
8.951330927045447
 21
7.586870496641664
  0
LINE
  8
_0-0_0
  6
CONTINUOUS
 62
    7
 10
8.951330927045447
 20
7.586870496641664
 11
9.4806474733227741
 21
6.4458992746661172
  0
LINE
  8
_0-0_0
  6
CONTINUOUS
 62
    7
 10
9.4806474733227741
 20
6.4458992746661172
 11
9.6217985523300626
 21
6.128309346899698
  0
LINE
  8
_0-0_0
  6
CONTINUOUS
 62
    7
 10
9.6217985523300626
 20
6.128309346899698
 11
9.6688489119991611
 21
5.8224820090505868
  0
LINE
  8
_0-0_0
  6
CONTINUOUS
 62
    7
 10
9.6688489119991611
 20
5.8224820090505868
 11
9.5512230128264263
 21
5.3872661821114586
  0
LINE
  8
_0-0_0
  6
CONTINUOUS
 62
    7
 10
9.5512230128264263
 20
5.3872661821114586
 11
9.304208624563671
 21
5.0579136644277848
  0
LINE
  8
_0-0_0
  6
CONTINUOUS
 62
    7
 10
9.304208624563671
 20
5.0579136644277848
 11
9.1160071858872822
 21
4.8814748156686658
  0
LINE
  8
_0-0_0
  6
CONTINUOUS
 62
    7
 10
9.1160071858872822
 20
4.8814748156686658
 11
8.7631294883690742
 21
4.6226978374886575
  0
LINE
  8
_0-0_0
  6
CONTINUOUS
 62
    7
 10
8.7631294883690742
 20
4.6226978374886575
 11
7.8456474748217024
 21
4.1404316508804281
  0
LINE
  8
_0-0_0
  6
CONTINUOUS
 62
    7
 10
7.8456474748217024
 20
4.1404316508804281
 11
7.5515827268898467
 21
4.0345683416249462
  0
LINE
  8
_0-0_0
  6
CONTINUOUS
 62
    7
 10
7.5515827268898467
 20
4.0345683416249462
 11
7.3280935184616557
 21
3.9169424424522101
  0
LINE
  8
_0-0_0
  6
CONTINUOUS
 62
    7
 10
7.3280935184616557
 20
3.9169424424522101
 11
6.5870503536733888
 21
3.764028773527654
  0
LINE
  8
_0-0_0
  6
CONTINUOUS
 62
    7
 10
6.5870503536733888
 20
3.764028773527654
 11
6.0106834477269739
 21
3.7993165432794731
  0
LINE
  8
_0-0_0
  6
CONTINUOUS
 62
    7
 10
6.0106834477269739
 20
3.7993165432794731
 11
5.5872302107051146
 21
4.0228057517076933
  0
LINE
  8
_0-0_0
  6
CONTINUOUS
 62
    7
 10
5.5872302107051146
 20
4.0228057517076933
 11
5.4225539518632768
 21
4.2462949601358825
  0
LINE
  8
_0-0_0
  6
CONTINUOUS
 62
    7
 10
5.4225539518632768
 20
4.2462949601358825
 11
5.3166906426078091
 21
4.4697841685640753
  0
LINE
  8
_0-0_0
  6
CONTINUOUS
 62
    7
 10
5.3166906426078091
 20
4.4697841685640753
 11
5.1873021535177912
 21
4.705035966909576
  0
LINE
  8
_0-0_0
  6
CONTINUOUS
 62
    7
 10
5.1873021535177912
 20
4.705035966909576
 11
4.8932374055859488
 21
5.363741002276896
  0
LINE
  8
_0-0_0
  6
CONTINUOUS
 62
    7
 10
4.8932374055859488
 20
5.363741002276896
 11
4.6109352475713762
 21
5.881294958636972
  0
LINE
  8
_0-0_0
  6
CONTINUOUS
 62
    7
 10
4.6109352475713762
 20
5.881294958636972
 11
4.5050719383159059
 21
6.1400719368169811
  0
LINE
  8
_0-0_0
  6
CONTINUOUS
 62
    7
 10
4.5050719383159059
 20
6.1400719368169811
 11
4.552122297985008
 21
6.245935246072463
  0
LINE
  8
_0-0_0
  6
CONTINUOUS
 62
    7
 10
4.552122297985008
 20
6.245935246072463
 11
5.293165462773258
 21
6.5870503536733888
  0
LINE
  8
_0-0_0
  6
CONTINUOUS
 62
    7
 10
5.293165462773258
 20
6.5870503536733888
 11
5.3755035921941782
 21
6.5870503536733888
  0
LINE
  8
_0-0_0
  6
CONTINUOUS
 62
    7
 10
5.3755035921941782
 20
6.5870503536733888
 11
5.5872302107051146
 21
6.1753597065687966
  0
LINE
  8
_0-0_0
  6
CONTINUOUS
 62
    7
 10
5.5872302107051146
 20
6.1753597065687966
 11
5.7754316493814865
 21
5.7283812897123871
  0
LINE
  8
_0-0_0
  6
CONTINUOUS
 62
    7
 10
5.7754316493814865
 20
5.7283812897123871
 11
5.8930575485542382
 21
5.5401798510360142
  0
LINE
  8
_0-0_0
  6
CONTINUOUS
 62
    7
 10
5.8930575485542382
 20
5.5401798510360142
 11
6.1283093468997131
 21
5.069676254345067
  0
LINE
  8
_0-0_0
  6
CONTINUOUS
 62
    7
 10
6.1283093468997131
 20
5.069676254345067
 11
6.23417265615518
 21
4.8226618660823126
  0
LINE
  8
_0-0_0
  6
CONTINUOUS
 62
    7
 10
6.23417265615518
 20
4.8226618660823126
 11
6.3753237351624667
 21
4.5874100677368385
  0
LINE
  8
_0-0_0
  6
CONTINUOUS
 62
    7
 10
6.3753237351624667
 20
4.5874100677368385
 11
6.5988129435906719
 21
4.4462589887295376
  0
LINE
  8
_0-0_0
  6
CONTINUOUS
 62
    7
 10
6.5988129435906719
 20
4.4462589887295376
 11
6.8340647419361451
 21
4.4227338088950025
  0
LINE
  8
_0-0_0
  6
CONTINUOUS
 62
    7
 10
6.8340647419361451
 20
4.4227338088950025
 11
7.2928057487098243
 21
4.4344963988122572
  0
LINE
  8
_0-0_0
  6
CONTINUOUS
 62
    7
 10
7.2928057487098243
 20
4.4344963988122572
 11
7.4692445974689416
 21
4.505071938315921
  0
LINE
  8
_0-0_0
  6
CONTINUOUS
 62
    7
 10
7.4692445974689416
 20
4.505071938315921
 11
7.6692086260625975
 21
4.5521222979849929
  0
LINE
  8
_0-0_0
  6
CONTINUOUS
 62
    7
 10
7.6692086260625975
 20
4.5521222979849929
 11
8.1397122227535572
 21
4.7873740963304936
  0
LINE
  8
_0-0_0
  6
CONTINUOUS
 62
    7
 10
8.1397122227535572
 20
4.7873740963304936
 11
8.551402869858137
 21
5.1402517938487051
  0
LINE
  8
_0-0_0
  6
CONTINUOUS
 62
    7
 10
8.551402869858137
 20
5.1402517938487051
 11
8.7043165387827041
 21
5.469604311532378
  0
LINE
  8
_0-0_0
  6
CONTINUOUS
 62
    7
 10
8.7043165387827041
 20
5.469604311532378
 11
8.6807913589481557
 21
5.7989568292160518
  0
LINE
  8
_0-0_0
  6
CONTINUOUS
 62
    7
 10
8.6807913589481557
 20
5.7989568292160518
 11
8.4455395606026684
 21
6.3517985553279183
  0
LINE
  8
_0-0_0
  6
CONTINUOUS
 62
    7
 10
8.4455395606026684
 20
6.3517985553279183
 11
8.3043884815953781
 21
6.6811510730115903
  0
LINE
  8
_0-0_0
  6
CONTINUOUS
 62
    7
 10
8.3043884815953781
 20
6.6811510730115903
 11
7.8456474748217024
 21
7.586870496641664
  0
LINE
  8
_0-0_0
  6
CONTINUOUS
 62
    7
 10
7.8456474748217024
 20
7.586870496641664
 11
7.8221222949871531
 21
7.704496395814429
  0
LINE
  8
_0-0_0
  6
CONTINUOUS
 62
    7
 10
7.8221222949871531
 20
7.704496395814429
 11
7.8456474748217024
 21
7.775071935318067
  0
LINE
  8
_0-0_0
  6
CONTINUOUS
 62
    7
 10
7.8456474748217024
 20
7.775071935318067
 11
8.2102877622571952
 21
7.9397481941599021
  0
LINE
  8
_0-0_0
  6
CONTINUOUS
 62
    7
 10
8.2102877622571952
 20
7.9397481941599021
 11
8.4455395606026684
 21
8.0808992731671764
  0
LINE
  8
_0-0_0
  6
CONTINUOUS
 62
    7
 10
8.4455395606026684
 20
8.0808992731671764
 11
8.6219784093617874
 21
8.1514748126708127
  0
LINE
  8
_0-0_0
  6
CONTINUOUS
 62
    7
 10
8.6219784093617874
 20
8.1514748126708127
 11
8.6807913589481557
 21
8.1279496328362768
  0
LINE
  8
_0-0_0
  6
CONTINUOUS
 62
    7
 10
8.6807913589481557
 20
8.1279496328362768
 11
8.8337050278727122
 21
7.8809352445735205
  0
LINE
  8
_0-0_0
  6
CONTINUOUS
 62
    7
 10
8.8337050278727122
 20
7.8809352445735205
 11
8.8337050278727122
 21
7.8809352445735205
  0
LINE
  8
_0-0_0
  6
CONTINUOUS
 62
    7
 10
3.681690644106736
 20
5.2461151031041586
 11
3.6699280541894538
 21
5.1520143837659873
  0
LINE
  8
_0-0_0
  6
CONTINUOUS
 62
    7
 10
3.6699280541894538
 20
5.1520143837659873
 11
3.2699999970021451
 21
4.7991366862477491
  0
LINE
  8
_0-0_0
  6
CONTINUOUS
 62
    7
 10
3.2699999970021451
 20
4.7991366862477491
 11
2.481906472544793
 21
4.128669060963146
  0
LINE
  8
_0-0_0
  6
CONTINUOUS
 62
    7
 10
2.481906472544793
 20
4.128669060963146
 11
2.258417264116586
 21
3.9639928021213099
  0
LINE
  8
_0-0_0
  6
CONTINUOUS
 62
    7
 10
2.258417264116586
 20
3.9639928021213099
 11
1.6232374085838039
 21
3.4229136659266981
  0
LINE
  8
_0-0_0
  6
CONTINUOUS
 62
    7
 10
1.6232374085838039
 20
3.4229136659266981
 11
1.411510790072866
 21
3.1758992776639431
  0
LINE
  8
_0-0_0
  6
CONTINUOUS
 62
    7
 10
1.411510790072866
 20
3.1758992776639431
 11
1.3644604304037799
 21
2.9406474793184709
  0
LINE
  8
_0-0_0
  6
CONTINUOUS
 62
    7
 10
1.3644604304037799
 20
2.9406474793184709
 11
1.4232733799901489
 21
2.7289208608075607
  0
LINE
  8
_0-0_0
  6
CONTINUOUS
 62
    7
 10
1.4232733799901489
 20
2.7289208608075607
 11
1.599712228749254
 21
2.5642446019657247
  0
LINE
  8
_0-0_0
  6
CONTINUOUS
 62
    7
 10
1.599712228749254
 20
2.5642446019657247
 11
1.905539566598378
 21
2.5642446019657247
  0
LINE
  8
_0-0_0
  6
CONTINUOUS
 62
    7
 10
1.905539566598378
 20
2.5642446019657247
 11
2.117266185109301
 21
2.67010791122118
  0
LINE
  8
_0-0_0
  6
CONTINUOUS
 62
    7
 10
2.117266185109301
 20
2.67010791122118
 11
3.481726615513081
 21
3.7993165432794731
  0
LINE
  8
_0-0_0
  6
CONTINUOUS
 62
    7
 10
3.481726615513081
 20
3.7993165432794731
 11
4.1169064710458647
 21
4.1521942407976819
  0
LINE
  8
_0-0_0
  6
CONTINUOUS
 62
    7
 10
4.1169064710458647
 20
4.1521942407976819
 11
4.528597118150456
 21
4.2345323702186021
  0
LINE
  8
_0-0_0
  6
CONTINUOUS
 62
    7
 10
4.528597118150456
 20
4.2345323702186021
 11
4.763848916495931
 21
4.2345323702186021
  0
LINE
  8
_0-0_0
  6
CONTINUOUS
 62
    7
 10
4.763848916495931
 20
4.2345323702186021
 11
4.9755755350068682
 21
4.128669060963146
  0
LINE
  8
_0-0_0
  6
CONTINUOUS
 62
    7
 10
4.9755755350068682
 20
4.128669060963146
 11
5.293165462773258
 21
3.775791363444938
  0
LINE
  8
_0-0_0
  6
CONTINUOUS
 62
    7
 10
5.293165462773258
 20
3.775791363444938
 11
5.328453232525077
 21
3.540539565099436
  0
LINE
  8
_0-0_0
  6
CONTINUOUS
 62
    7
 10
5.328453232525077
 20
3.540539565099436
 11
5.3166906426078091
 21
3.1876618675812258
  0
LINE
  8
_0-0_0
  6
CONTINUOUS
 62
    7
 10
5.3166906426078091
 20
3.1876618675812258
 11
5.0343884845932356
 21
2.7053956809729982
  0
LINE
  8
_0-0_0
  6
CONTINUOUS
 62
    7
 10
5.0343884845932356
 20
2.7053956809729982
 11
4.8814748156686809
 21
2.5054316523793431
  0
LINE
  8
_0-0_0
  6
CONTINUOUS
 62
    7
 10
4.8814748156686809
 20
2.5054316523793431
 11
2.7642086305593651
 21
0.7410431647882661
  0
LINE
  8
_0-0_0
  6
CONTINUOUS
 62
    7
 10
2.7642086305593651
 20
0.7410431647882661
 11
2.2348920842820367
 21
0.3175899277663916
  0
LINE
  8
_0-0_0
  6
CONTINUOUS
 62
    7
 10
2.2348920842820367
 20
0.3175899277663916
 11
2.1525539548611321
 21
0.3175899277663916
  0
LINE
  8
_0-0_0
  6
CONTINUOUS
 62
    7
 10
2.1525539548611321
 20
0.3175899277663916
 11
1.9408273363501959
 21
0.5528417261118647
  0
LINE
  8
_0-0_0
  6
CONTINUOUS
 62
    7
 10
1.9408273363501959
 20
0.5528417261118647
 11
1.9525899262674639
 21
0.6469424454500654
  0
LINE
  8
_0-0_0
  6
CONTINUOUS
 62
    7
 10
1.9525899262674639
 20
0.6469424454500654
 11
2.5054316523793431
 21
1.129208632058293
  0
LINE
  8
_0-0_0
  6
CONTINUOUS
 62
    7
 10
2.5054316523793431
 20
1.129208632058293
 11
2.999460428904852
 21
1.529136689245603
  0
LINE
  8
_0-0_0
  6
CONTINUOUS
 62
    7
 10
2.999460428904852
 20
1.529136689245603
 11
3.5875899247685492
 21
2.034928055688395
  0
LINE
  8
_0-0_0
  6
CONTINUOUS
 62
    7
 10
3.5875899247685492
 20
2.034928055688395
 11
4.128669060963146
 21
2.4936690624620601
  0
LINE
  8
_0-0_0
  6
CONTINUOUS
 62
    7
 10
4.128669060963146
 20
2.4936690624620601
 11
4.316870499639533
 21
2.775971220476634
  0
LINE
  8
_0-0_0
  6
CONTINUOUS
 62
    7
 10
4.316870499639533
 20
2.775971220476634
 11
4.316870499639533
 21
3.0700359684084901
  0
LINE
  8
_0-0_0
  6
CONTINUOUS
 62
    7
 10
4.316870499639533
 20
3.0700359684084901
 11
4.2345323702186163
 21
3.211187047415791
  0
LINE
  8
_0-0_0
  6
CONTINUOUS
 62
    7
 10
4.2345323702186163
 20
3.211187047415791
 11
4.0698561113767786
 21
3.3288129465885258
  0
LINE
  8
_0-0_0
  6
CONTINUOUS
 62
    7
 10
4.0698561113767786
 20
3.3288129465885258
 11
3.764028773527654
 21
3.3288129465885258
  0
LINE
  8
_0-0_0
  6
CONTINUOUS
 62
    7
 10
3.764028773527654
 20
3.3288129465885258
 11
3.4699640255957988
 21
3.1758992776639431
  0
LINE
  8
_0-0_0
  6
CONTINUOUS
 62
    7
 10
3.4699640255957988
 20
3.1758992776639431
 11
2.681870501138448
 21
2.5407194221311608
  0
LINE
  8
_0-0_0
  6
CONTINUOUS
 62
    7
 10
2.681870501138448
 20
2.5407194221311608
 11
2.3289928036202378
 21
2.27017985403387
  0
LINE
  8
_0-0_0
  6
CONTINUOUS
 62
    7
 10
2.3289928036202378
 20
2.27017985403387
 11
1.917302156515646
 21
1.91730215651566
  0
LINE
  8
_0-0_0
  6
CONTINUOUS
 62
    7
 10
1.917302156515646
 20
1.91730215651566
 11
1.717338127921991
 21
1.776151077508359
  0
LINE
  8
_0-0_0
  6
CONTINUOUS
 62
    7
 10
1.717338127921991
 20
1.776151077508359
 11
1.293884890900129
 21
1.6467625884183398
  0
LINE
  8
_0-0_0
  6
CONTINUOUS
 62
    7
 10
1.293884890900129
 20
1.6467625884183398
 11
1.082158272389192
 21
1.6467625884183398
  0
LINE
  8
_0-0_0
  6
CONTINUOUS
 62
    7
 10
1.082158272389192
 20
1.6467625884183398
 11
0.6822302152018836
 21
1.776151077508359
  0
LINE
  8
_0-0_0
  6
CONTINUOUS
 62
    7
 10
0.6822302152018836
 20
1.776151077508359
 11
0.3646402874354919
 21
2.129028775026569
  0
LINE
  8
_0-0_0
  6
CONTINUOUS
 62
    7
 10
0.3646402874354919
 20
2.129028775026569
 11
0.3058273378491235
 21
2.27017985403387
  0
LINE
  8
_0-0_0
  6
CONTINUOUS
 62
    7
 10
0.3058273378491235
 20
2.27017985403387
 11
0.3058273378491235
 21
2.5407194221311608
  0
LINE
  8
_0-0_0
  6
CONTINUOUS
 62
    7
 10
0.3058273378491235
 20
2.5407194221311608
 11
0.4352158269391281
 21
2.7877338103939148
  0
LINE
  8
_0-0_0
  6
CONTINUOUS
 62
    7
 10
0.4352158269391281
 20
2.7877338103939148
 11
0.5410791361945967
 21
3.011223018822136
  0
LINE
  8
_0-0_0
  6
CONTINUOUS
 62
    7
 10
0.5410791361945967
 20
3.011223018822136
 11
1.152733811892844
 21
3.6699280541894538
  0
LINE
  8
_0-0_0
  6
CONTINUOUS
 62
    7
 10
1.152733811892844
 20
3.6699280541894538
 11
1.329172660651948
 21
3.7875539533621909
  0
LINE
  8
_0-0_0
  6
CONTINUOUS
 62
    7
 10
1.329172660651948
 20
3.7875539533621909
 11
1.893776976681095
 21
4.2580575500531656
  0
LINE
  8
_0-0_0
  6
CONTINUOUS
 62
    7
 10
1.893776976681095
 20
4.2580575500531656
 11
2.564244601965711
 21
4.8226618660823126
  0
LINE
  8
_0-0_0
  6
CONTINUOUS
 62
    7
 10
2.564244601965711
 20
4.8226618660823126
 11
3.1758992776639569
 21
5.3519784123596405
  0
LINE
  8
_0-0_0
  6
CONTINUOUS
 62
    7
 10
3.1758992776639569
 20
5.3519784123596405
 11
3.411151076009431
 21
5.504892081284197
  0
LINE
  8
_0-0_0
  6
CONTINUOUS
 62
    7
 10
3.411151076009431
 20
5.504892081284197
 11
3.4934892054303499
 21
5.4931294913669139
  0
LINE
  8
_0-0_0
  6
CONTINUOUS
 62
    7
 10
3.4934892054303499
 20
5.4931294913669139
 11
3.681690644106736
 21
5.2461151031041586
  0
LINE
  8
_0-0_0
  6
CONTINUOUS
 62
    7
 10
3.681690644106736
 20
5.2461151031041586
 11
3.681690644106736
 21
5.2461151031041586
  0
ENDBLK
  0
BLOCK
  2
-002-WAKU
 70
   64
 10
0
 20
0
 30
0
  0
INSERT
  2
-001-LOGO
  8
_0-0_0
 10
26.349999999999841
 20
273.6500000000002
 41
1
 42
1
 50
0
  0
LINE
  8
_0-0_0
  6
CONTINUOUS
 62
    7
 10
24.99999999999984
 20
285.00000000000022
 11
408
 21
285.00000000000022
  0
LINE
  8
_0-0_0
  6
CONTINUOUS
 62
    7
 10
408
 20
285.00000000000022
 11
408
 21
11.99999999999995
  0
LINE
  8
_0-0_0
  6
CONTINUOUS
 62
    7
 10
408
 20
11.99999999999995
 11
24.99999999999984
 21
11.999999999999939
  0
LINE
  8
_0-0_0
  6
CONTINUOUS
 62
    7
 10
24.99999999999984
 20
11.999999999999939
 11
24.99999999999984
 21
285.00000000000022
  0
LINE
  8
_0-0_0
  6
CONTINUOUS
 62
    7
 10
347.00000000000022
 20
285.00000000000022
 11
408
 21
285.00000000000022
  0
LINE
  8
_0-0_0
  6
CONTINUOUS
 62
    7
 10
408
 20
285.00000000000022
 11
408
 21
278.00000000000022
  0
LINE
  8
_0-0_0
  6
CONTINUOUS
 62
    7
 10
408
 20
278.00000000000022
 11
347.00000000000022
 21
278.00000000000022
  0
LINE
  8
_0-0_0
  6
CONTINUOUS
 62
    7
 10
347.00000000000022
 20
278.00000000000022
 11
347.00000000000022
 21
285.00000000000022
  0
LINE
  8
_0-0_0
  6
CONTINUOUS
 62
    7
 10
24.99999999999984
 20
36.000000000000163
 11
108.9999999999998
 21
36.000000000000163
  0
LINE
  8
_0-0_0
  6
CONTINUOUS
 62
    7
 10
108.9999999999998
 20
36.000000000000163
 11
108.9999999999998
 21
12.000000000000149
  0
LINE
  8
_0-0_0
  6
CONTINUOUS
 62
    7
 10
108.9999999999998
 20
12.000000000000149
 11
24.99999999999984
 21
12.000000000000129
  0
LINE
  8
_0-0_0
  6
CONTINUOUS
 62
    7
 10
24.99999999999984
 20
12.000000000000129
 11
24.99999999999984
 21
36.000000000000163
  0
LINE
  8
_0-0_0
  6
CONTINUOUS
 62
    7
 10
24.99999999999984
 20
30.000000000000149
 11
108.9999999999998
 21
30.000000000000149
  0
LINE
  8
_0-0_0
  6
CONTINUOUS
 62
    7
 10
24.99999999999984
 20
24.000000000000149
 11
108.9999999999998
 21
24.000000000000149
  0
LINE
  8
_0-0_0
  6
CONTINUOUS
 62
    7
 10
24.99999999999984
 20
18.000000000000131
 11
108.9999999999998
 21
18.000000000000131
  0
TEXT
  8
_0-3_TEXT
 62
    7
 10
76.749999999999843
 20
13.12500000000014
 40
3.75
 41
1
 50
0
  1
年 月 日
  0
TEXT
  8
_0-3_TEXT
 62
    7
 10
39.749999999999829
 20
13.12500000000003
 40
3.75
 41
1
 50
0
  1
訂　正　箇　所
  0
LINE
  8
_0-0_0
  6
CONTINUOUS
 62
    7
 10
34.999999999999836
 20
12.000000000000149
 11
34.999999999999836
 21
36.000000000000163
  0
TEXT
  8
_0-3_TEXT
 62
    7
 10
28.74999999999984
 20
31.12500000000017
 40
3.75
 41
1
 50
0
  1
3
  0
TEXT
  8
_0-3_TEXT
 62
    7
 10
28.74999999999984
 20
25.12500000000017
 40
3.75
 41
1
 50
0
  1
2
  0
TEXT
  8
_0-3_TEXT
 62
    7
 10
26.87499999999984
 20
13.12500000000014
 40
3.75
 41
1
 50
0
  1
No
  0
TEXT
  8
_0-3_TEXT
 62
    7
 10
29.37499999999984
 20
19.125000000000149
 40
3.75
 41
1
 50
0
  1
1
  0
LINE
  8
_0-0_0
  6
CONTINUOUS
 62
    7
 10
74.999999999999829
 20
12.000000000000149
 11
74.999999999999829
 21
36.000000000000163
  0
LINE
  8
_0-0_0
  6
CONTINUOUS
 62
    7
 10
94.999999999999843
 20
12.000000000000149
 11
94.999999999999843
 21
36.000000000000163
  0
TEXT
  8
_0-3_TEXT
 62
    7
 10
95.749999999999786
 20
13.12500000000014
 40
3.75
 41
1
 50
0
  1
訂正者
  0
LINE
  8
_0-0_0
  6
CONTINUOUS
 62
    7
 10
408
 20
28.99999999999995
 11
133
 21
28.99999999999995
  0
LINE
  8
_0-0_0
  6
CONTINUOUS
 62
    7
 10
133
 20
28.99999999999995
 11
133
 21
11.999999999999939
  0
LINE
  8
_0-0_0
  6
CONTINUOUS
 62
    7
 10
149
 20
12.000000000000099
 11
149
 21
28.99999999999995
  0
LINE
  8
_0-0_0
  6
CONTINUOUS
 62
    7
 10
165
 20
12.000000000000099
 11
165
 21
28.99999999999995
  0
LINE
  8
_0-0_0
  6
CONTINUOUS
 62
    7
 10
181
 20
12.000000000000099
 11
181
 21
28.99999999999995
  0
TEXT
  8
_0-3_TEXT
 62
    7
 10
136.125
 20
24.699999999999949
 40
2.924999999999998
 41
1
 50
0
  1
設　計
  0
TEXT
  8
_0-3_TEXT
 62
    7
 10
152.22249999999999
 20
24.699999999999949
 40
2.924999999999998
 41
1
 50
0
  1
製　図
  0
TEXT
  8
_0-3_TEXT
 62
    7
 10
168.22249999999999
 20
24.699999999999949
 40
2.924999999999998
 41
1
 50
0
  1
検　図
  0
TEXT
  8
_0-3_TEXT
 62
    7
 10
184.125
 20
24.699999999999949
 40
2.924999999999998
 41
1
 50
0
  1
承　認
  0
LINE
  8
_0-0_0
  6
CONTINUOUS
 62
    7
 10
197
 20
12.000000000000099
 11
197
 21
28.99999999999995
  0
TEXT
  8
_0-3_TEXT
 62
    7
 10
199.4625
 20
27.68333333333334
 40
3.25
 41
1
 50
0
  1
尺度
  7
TATEGAKI
  0
TEXT
  8
_0-3_TEXT
 62
    7
 10
198
 20
14.03750000000001
 40
3.25
 41
1
 50
0
  1
日付
  0
LINE
  8
_0-0_0
  6
CONTINUOUS
 62
    7
 10
197
 20
19.000000000000081
 11
408
 21
19.000000000000039
  0
TEXT
  8
_0-3_TEXT
 62
    7
 10
243.4625
 20
27.574999999999999
 40
3.25
 41
1
 50
0
  1
材質
  7
TATEGAKI
  0
TEXT
  8
_0-3_TEXT
 62
    7
 10
242
 20
14.037499999999999
 40
3.25
 41
1
 50
0
  1
仕上
  0
LINE
  8
_0-0_0
  6
CONTINUOUS
 62
    7
 10
241
 20
12.000000000000099
 11
241
 21
28.99999999999995
  0
LINE
  8
_0-0_0
  6
CONTINUOUS
 62
    7
 10
291
 20
12.000000000000099
 11
291
 21
28.99999999999995
  0
TEXT
  8
_0-3_TEXT
 62
    7
 10
293.46249999999997
 20
27.68333333333333
 40
3.25
 41
1
 50
0
  1
図番
  7
TATEGAKI
  0
TEXT
  8
_0-3_TEXT
 62
    7
 10
292
 20
14.037499999999999
 40
3.25
 41
1
 50
0
  1
品名
  0
LINE
  8
_0-0_0
  6
CONTINUOUS
 62
    7
 10
408
 20
33.99999999999995
 11
278
 21
33.99999999999995
  0
LINE
  8
_0-0_0
  6
CONTINUOUS
 62
    7
 10
278
 20
33.99999999999995
 11
278
 21
28.99999999999995
  0
TEXT
  8
_0-3_TEXT
 62
    7
 10
283.77249999999997
 20
30.199999999999949
 40
2.924999999999998
 41
1
 50
0
  1
図　　番
  0
LINE
  8
_0-0_0
  6
CONTINUOUS
 62
    7
 10
334
 20
19.00000000000006
 11
334
 21
28.99999999999995
  0
TEXT
  8
_0-3_TEXT
 62
    7
 10
336.46249999999997
 20
27.683333333333319
 40
3.25
 41
1
 50
0
  1
品番
  7
TATEGAKI
  0
LINE
  8
_0-0_0
  6
CONTINUOUS
 62
    7
 10
303
 20
33.99999999999995
 11
303
 21
28.99999999999995
  0
LINE
  8
_0-0_0
  6
CONTINUOUS
 62
    7
 10
313
 20
33.99999999999995
 11
313
 21
28.99999999999995
  0
LINE
  8
_0-0_0
  6
CONTINUOUS
 62
    7
 10
353
 20
33.99999999999995
 11
353
 21
28.99999999999995
  0
LINE
  8
_0-0_0
  6
CONTINUOUS
 62
    7
 10
363
 20
33.99999999999995
 11
363
 21
28.99999999999995
  0
LINE
  8
_0-0_0
  6
CONTINUOUS
 62
    7
 10
383
 20
33.99999999999995
 11
383
 21
28.99999999999995
  0
TEXT
  8
_0-3_TEXT
 62
    7
 10
304.87999999999999
 20
30.199999999999949
 40
2.924999999999998
 41
1
 50
0
  1
番号
  0
TEXT
  8
_0-3_TEXT
 62
    7
 10
326.46749999999997
 20
30.199999999999949
 40
2.924999999999998
 41
1
 50
0
  1
品　　名
  0
TEXT
  8
_0-3_TEXT
 62
    7
 10
354.87999999999999
 20
30.199999999999949
 40
2.924999999999998
 41
1
 50
0
  1
個数
  0
TEXT
  8
_0-3_TEXT
 62
    7
 10
366.37
 20
30.199999999999949
 40
2.924999999999998
 41
1
 50
0
  1
材　　質
  0
TEXT
  8
_0-3_TEXT
 62
    7
 10
388.87
 20
30.199999999999949
 40
2.924999999999998
 41
1
 50
0
  1
備　　考
  0
ENDBLK
  0
BLOCK
  2
-003-_D3
 70
   64
 10
0
 20
0
 30
0
  0
LINE
  8
_0-2_SUNPOU
  6
CONTINUOUS
 62
    7
 10
257.78382989991291
 20
166.47440192556359
 11
267.56733054991292
 21
166.47440192556359
  0
LINE
  8
_0-2_SUNPOU
  6
CONTINUOUS
 62
    7
 10
257.78382989991291
 20
161.47440192556359
 11
267.56733054991292
 21
161.47440192556359
  0
LINE
  8
_0-2_SUNPOU
  6
CONTINUOUS
 62
    7
 10
267.38733054991291
 20
168.47440192556359
 11
267.38733054991291
 21
170.47440192556359
  0
LINE
  8
_0-2_SUNPOU
  6
CONTINUOUS
 62
    7
 10
267.38733054991291
 20
159.47440192556359
 11
267.38733054991291
 21
157.47440192556359
  0
TEXT
  8
_0-2_SUNPOU
 62
    7
 10
266.05154186362307
 20
167.47595800912159
 40
2.799999999999998
 41
1
 50
90
  1
5
  0
SOLID
  8
_0-2_SUNPOU
  6
CONTINUOUS
 62
    7
 10
267.0539972165796
 20
164.47440192556359
 11
267.72066388324617
 21
164.47440192556359
 12
267.38733054991291
 22
166.47440192556359
 13
267.38733054991291
 23
166.47440192556359
  0
LINE
  8
_0-2_SUNPOU
  6
CONTINUOUS
 62
    7
 10
267.38733054991291
 20
164.47440192556359
 11
267.38733054991291
 21
162.47440192556359
  0
LINE
  8
_0-2_SUNPOU
  6
CONTINUOUS
 62
    7
 10
267.38733054991291
 20
166.47440192556359
 11
267.38733054991291
 21
168.47440192556359
  0
SOLID
  8
_0-2_SUNPOU
  6
CONTINUOUS
 62
    7
 10
267.0539972165796
 20
163.47440192556359
 11
267.72066388324617
 21
163.47440192556359
 12
267.38733054991291
 22
161.47440192556359
 13
267.38733054991291
 23
161.47440192556359
  0
LINE
  8
_0-2_SUNPOU
  6
CONTINUOUS
 62
    7
 10
267.38733054991291
 20
163.47440192556359
 11
267.38733054991291
 21
165.47440192556359
  0
LINE
  8
_0-2_SUNPOU
  6
CONTINUOUS
 62
    7
 10
267.38733054991291
 20
161.47440192556359
 11
267.38733054991291
 21
159.47440192556359
  0
POINT
  8
_0-7_DEFPOINTS
 62
    7
 10
257.72132989991291
 20
166.47440192556359
  0
POINT
  8
_0-7_DEFPOINTS
 62
    7
 10
257.72132989991291
 20
161.47440192556359
  0
POINT
  8
_0-7_DEFPOINTS
 62
    7
 10
267.38733054991291
 20
161.47440192556359
  0
ENDBLK
  0
BLOCK
  2
-004-_D4
 70
   64
 10
0
 20
0
 30
0
  0
LINE
  8
_0-2_SUNPOU
  6
CONTINUOUS
 62
    7
 10
255.22132989991288
 20
158.91190192556359
 11
255.22132989991288
 21
141.76690852956349
  0
LINE
  8
_0-2_SUNPOU
  6
CONTINUOUS
 62
    7
 10
245.2213298999128
 20
158.91190192556359
 11
245.2213298999128
 21
141.76690852956349
  0
LINE
  8
_0-2_SUNPOU
  6
CONTINUOUS
 62
    7
 10
253.22132989991288
 20
141.94690852956358
 11
247.2213298999128
 21
141.94690852956358
  0
SOLID
  8
_0-2_SUNPOU
  6
CONTINUOUS
 62
    7
 10
253.22132989991288
 20
142.2802418628969
 11
253.22132989991288
 21
141.61357519623018
 12
255.22132989991288
 22
141.94690852956358
 13
255.22132989991288
 23
141.94690852956358
  0
SOLID
  8
_0-2_SUNPOU
  6
CONTINUOUS
 62
    7
 10
247.2213298999128
 20
142.2802418628969
 11
247.2213298999128
 21
141.61357519623018
 12
245.2213298999128
 22
141.94690852956358
 13
245.2213298999128
 23
141.94690852956358
  0
TEXT
  8
_0-2_SUNPOU
 62
    7
 10
248.82132989991288
 20
142.94690852956358
 40
2.799999999999998
 41
1
 50
0
  1
10
  0
POINT
  8
_0-7_DEFPOINTS
 62
    7
 10
255.22132989991288
 20
158.97440192556359
  0
POINT
  8
_0-7_DEFPOINTS
 62
    7
 10
245.2213298999128
 20
158.97440192556359
  0
POINT
  8
_0-7_DEFPOINTS
 62
    7
 10
245.2213298999128
 20
141.94690852956358
  0
ENDBLK
  0
BLOCK
  2
-005-_D5
 70
   64
 10
0
 20
0
 30
0
  0
LINE
  8
_0-2_SUNPOU
  6
CONTINUOUS
 62
    7
 10
255.72132990091279
 20
150.3744019255636
 11
275.30397344891292
 21
150.3744019255636
  0
LINE
  8
_0-2_SUNPOU
  6
CONTINUOUS
 62
    7
 10
262.51657105391291
 20
163.97440192556359
 11
275.30397344891292
 21
163.97440192556359
  0
LINE
  8
_0-2_SUNPOU
  6
CONTINUOUS
 62
    7
 10
275.12397344891292
 20
152.3744019255636
 11
275.12397344891292
 21
161.97440192556359
  0
SOLID
  8
_0-2_SUNPOU
  6
CONTINUOUS
 62
    7
 10
274.7906401155796
 20
152.3744019255636
 11
275.45730678224617
 21
152.3744019255636
 12
275.12397344891292
 22
150.3744019255636
 13
275.12397344891292
 23
150.3744019255636
  0
SOLID
  8
_0-2_SUNPOU
  6
CONTINUOUS
 62
    7
 10
274.7906401155796
 20
161.97440192556359
 11
275.45730678224617
 21
161.97440192556359
 12
275.12397344891292
 22
163.97440192556359
 13
275.12397344891292
 23
163.97440192556359
  0
TEXT
  8
_0-2_SUNPOU
 62
    7
 10
274.12397344891274
 20
154.37440192556357
 40
2.799999999999998
 41
1
 50
90
  1
13.6
  0
POINT
  8
_0-7_DEFPOINTS
 62
    7
 10
253.72132990091279
 20
150.3744019255636
  0
POINT
  8
_0-7_DEFPOINTS
 62
    7
 10
260.51657105391291
 20
163.97440192556359
  0
POINT
  8
_0-7_DEFPOINTS
 62
    7
 10
275.12397344891292
 20
163.97440192556359
  0
ENDBLK
  0
BLOCK
  2
-006-_D6
 70
   64
 10
0
 20
0
 30
0
  0
LINE
  8
_0-2_SUNPOU
  6
CONTINUOUS
 62
    7
 10
262.51657105391291
 20
163.97440192556359
 11
275.30397344891292
 21
163.97440192556359
  0
LINE
  8
_0-2_SUNPOU
  6
CONTINUOUS
 62
    7
 10
260.72132990091279
 20
187.97440192556359
 11
275.30397344891292
 21
187.97440192556359
  0
LINE
  8
_0-2_SUNPOU
  6
CONTINUOUS
 62
    7
 10
275.12397344891292
 20
165.97440192556359
 11
275.12397344891292
 21
172.64106859223019
  0
LINE
  8
_0-2_SUNPOU
  6
CONTINUOUS
 62
    7
 10
275.12397344891292
 20
185.97440192556359
 11
275.12397344891292
 21
179.30773525889691
  0
SOLID
  8
_0-2_SUNPOU
  6
CONTINUOUS
 62
    7
 10
274.7906401155796
 20
165.97440192556359
 11
275.45730678224617
 21
165.97440192556359
 12
275.12397344891292
 22
163.97440192556359
 13
275.12397344891292
 23
163.97440192556359
  0
SOLID
  8
_0-2_SUNPOU
  6
CONTINUOUS
 62
    7
 10
274.7906401155796
 20
185.97440192556359
 11
275.45730678224617
 21
185.97440192556359
 12
275.12397344891292
 22
187.97440192556359
 13
275.12397344891292
 23
187.97440192556359
  0
TEXT
  8
_0-2_SUNPOU
 62
    7
 10
276.52397344891278
 20
174.57440192556359
 40
2.799999999999998
 41
1
 50
90
  1
24
  0
POINT
  8
_0-7_DEFPOINTS
 62
    7
 10
260.51657105391291
 20
163.97440192556359
  0
POINT
  8
_0-7_DEFPOINTS
 62
    7
 10
258.72132990091279
 20
187.97440192556359
  0
POINT
  8
_0-7_DEFPOINTS
 62
    7
 10
275.12397344891292
 20
187.97440192556359
  0
ENDBLK
  0
BLOCK
  2
-007-_D7
 70
   64
 10
0
 20
0
 30
0
  0
LINE
  8
_0-2_SUNPOU
  6
CONTINUOUS
 62
    7
 10
260.72132990091279
 20
187.97440192556359
 11
275.30397344891292
 21
187.97440192556359
  0
LINE
  8
_0-2_SUNPOU
  6
CONTINUOUS
 62
    7
 10
262.51657105391291
 20
211.97440192556359
 11
275.30397344891292
 21
211.97440192556359
  0
LINE
  8
_0-2_SUNPOU
  6
CONTINUOUS
 62
    7
 10
275.12397344891292
 20
189.97440192556351
 11
275.12397344891292
 21
209.97440192556359
  0
SOLID
  8
_0-2_SUNPOU
  6
CONTINUOUS
 62
    7
 10
274.7906401155796
 20
189.97440192556351
 11
275.45730678224617
 21
189.97440192556351
 12
275.12397344891292
 22
187.97440192556359
 13
275.12397344891292
 23
187.97440192556359
  0
SOLID
  8
_0-2_SUNPOU
  6
CONTINUOUS
 62
    7
 10
274.7906401155796
 20
209.97440192556359
 11
275.45730678224617
 21
209.97440192556359
 12
275.12397344891292
 22
211.97440192556359
 13
275.12397344891292
 23
211.97440192556359
  0
TEXT
  8
_0-2_SUNPOU
 62
    7
 10
274.12397344891274
 20
198.57440192556359
 40
2.799999999999998
 41
1
 50
90
  1
24
  0
POINT
  8
_0-7_DEFPOINTS
 62
    7
 10
258.72132990091279
 20
187.97440192556359
  0
POINT
  8
_0-7_DEFPOINTS
 62
    7
 10
260.51657105391291
 20
211.97440192556359
  0
POINT
  8
_0-7_DEFPOINTS
 62
    7
 10
275.12397344891292
 20
211.97440192556359
  0
ENDBLK
  0
BLOCK
  2
-008-_D8
 70
   64
 10
0
 20
0
 30
0
  0
LINE
  8
_0-2_SUNPOU
  6
CONTINUOUS
 62
    7
 10
262.51657105391291
 20
211.97440192556359
 11
275.30397344891292
 21
211.97440192556359
  0
LINE
  8
_0-2_SUNPOU
  6
CONTINUOUS
 62
    7
 10
262.51657105391291
 20
235.97440192556359
 11
275.30397344891292
 21
235.97440192556359
  0
LINE
  8
_0-2_SUNPOU
  6
CONTINUOUS
 62
    7
 10
275.12397344891292
 20
213.97440192556359
 11
275.12397344891292
 21
233.97440192556359
  0
SOLID
  8
_0-2_SUNPOU
  6
CONTINUOUS
 62
    7
 10
274.7906401155796
 20
213.97440192556359
 11
275.45730678224617
 21
213.97440192556359
 12
275.12397344891292
 22
211.97440192556359
 13
275.12397344891292
 23
211.97440192556359
  0
SOLID
  8
_0-2_SUNPOU
  6
CONTINUOUS
 62
    7
 10
274.7906401155796
 20
233.97440192556359
 11
275.45730678224617
 21
233.97440192556359
 12
275.12397344891292
 22
235.97440192556359
 13
275.12397344891292
 23
235.97440192556359
  0
TEXT
  8
_0-2_SUNPOU
 62
    7
 10
274.12397344891274
 20
222.57440192556359
 40
2.799999999999998
 41
1
 50
90
  1
24
  0
POINT
  8
_0-7_DEFPOINTS
 62
    7
 10
260.51657105391291
 20
211.97440192556359
  0
POINT
  8
_0-7_DEFPOINTS
 62
    7
 10
260.51657105391291
 20
235.97440192556359
  0
POINT
  8
_0-7_DEFPOINTS
 62
    7
 10
275.12397344891292
 20
235.97440192556359
  0
ENDBLK
  0
BLOCK
  2
-009-_D9
 70
   64
 10
0
 20
0
 30
0
  0
LINE
  8
_0-2_SUNPOU
  6
CONTINUOUS
 62
    7
 10
222.08382990091288
 20
129.77440192656359
 11
287.10728837691289
 21
129.77440192656359
  0
LINE
  8
_0-2_SUNPOU
  6
CONTINUOUS
 62
    7
 10
230.95714666191278
 20
137.77440192656359
 11
287.10728837691289
 21
137.77440192656359
  0
LINE
  8
_0-2_SUNPOU
  6
CONTINUOUS
 62
    7
 10
286.92728837691288
 20
131.77440192656359
 11
286.92728837691288
 21
135.77440192656359
  0
TEXT
  8
_0-2_SUNPOU
 62
    7
 10
285.26930567110196
 20
133.73955026742859
 40
2.799999999999998
 41
1
 50
90
  1
8
  0
SOLID
  8
_0-2_SUNPOU
  6
CONTINUOUS
 62
    7
 10
286.59395504357951
 20
131.77440192656359
 11
287.26062171024619
 21
131.77440192656359
 12
286.92728837691288
 22
129.77440192656359
 13
286.92728837691288
 23
129.77440192656359
  0
SOLID
  8
_0-2_SUNPOU
  6
CONTINUOUS
 62
    7
 10
286.59395504357951
 20
135.77440192656359
 11
287.26062171024619
 21
135.77440192656359
 12
286.92728837691288
 22
137.77440192656359
 13
286.92728837691288
 23
137.77440192656359
  0
POINT
  8
_0-7_DEFPOINTS
 62
    7
 10
222.02132990091288
 20
129.77440192656359
  0
POINT
  8
_0-7_DEFPOINTS
 62
    7
 10
230.89464666191278
 20
137.77440192656359
  0
POINT
  8
_0-7_DEFPOINTS
 62
    7
 10
286.92728837691288
 20
137.77440192656359
  0
ENDBLK
  0
BLOCK
  2
-010-_D10
 70
   64
 10
0
 20
0
 30
0
  0
LINE
  8
_0-2_SUNPOU
  6
CONTINUOUS
 62
    7
 10
230.95714666191278
 20
137.77440192656359
 11
287.10728837691289
 21
137.77440192656359
  0
LINE
  8
_0-2_SUNPOU
  6
CONTINUOUS
 62
    7
 10
228.39556903391289
 20
261.77440192656348
 11
287.10728837691289
 21
261.77440192656348
  0
LINE
  8
_0-2_SUNPOU
  6
CONTINUOUS
 62
    7
 10
286.92728837691288
 20
139.77440192656359
 11
286.92728837691288
 21
259.77440192656348
  0
SOLID
  8
_0-2_SUNPOU
  6
CONTINUOUS
 62
    7
 10
286.59395504357951
 20
139.77440192656359
 11
287.26062171024619
 21
139.77440192656359
 12
286.92728837691288
 22
137.77440192656359
 13
286.92728837691288
 23
137.77440192656359
  0
SOLID
  8
_0-2_SUNPOU
  6
CONTINUOUS
 62
    7
 10
286.59395504357951
 20
259.77440192656348
 11
287.26062171024619
 21
259.77440192656348
 12
286.92728837691288
 22
261.77440192656348
 13
286.92728837691288
 23
261.77440192656348
  0
TEXT
  8
_0-2_SUNPOU
 62
    7
 10
285.92728837691277
 20
197.67440192656351
 40
2.799999999999998
 41
1
 50
90
  1
124
  0
POINT
  8
_0-7_DEFPOINTS
 62
    7
 10
230.89464666191278
 20
137.77440192656359
  0
POINT
  8
_0-7_DEFPOINTS
 62
    7
 10
228.33306903391289
 20
261.77440192656348
  0
POINT
  8
_0-7_DEFPOINTS
 62
    7
 10
286.92728837691288
 20
261.77440192656348
  0
ENDBLK
  0
BLOCK
  2
-011-_D11
 70
   64
 10
0
 20
0
 30
0
  0
LINE
  8
_0-2_SUNPOU
  6
CONTINUOUS
 62
    7
 10
228.39556903391289
 20
261.77440192656348
 11
287.10728837691289
 21
261.77440192656348
  0
LINE
  8
_0-2_SUNPOU
  6
CONTINUOUS
 62
    7
 10
222.08382990091288
 20
269.77440192656348
 11
287.10728837691289
 21
269.77440192656348
  0
LINE
  8
_0-2_SUNPOU
  6
CONTINUOUS
 62
    7
 10
286.92728837691288
 20
263.77440192656348
 11
286.92728837691288
 21
267.77440192656348
  0
TEXT
  8
_0-2_SUNPOU
 62
    7
 10
284.22620756790558
 20
265.33691903792299
 40
2.799999999999998
 41
1
 50
90
  1
8
  0
SOLID
  8
_0-2_SUNPOU
  6
CONTINUOUS
 62
    7
 10
286.59395504357951
 20
263.77440192656348
 11
287.26062171024619
 21
263.77440192656348
 12
286.92728837691288
 22
261.77440192656348
 13
286.92728837691288
 23
261.77440192656348
  0
SOLID
  8
_0-2_SUNPOU
  6
CONTINUOUS
 62
    7
 10
286.59395504357951
 20
267.77440192656348
 11
287.26062171024619
 21
267.77440192656348
 12
286.92728837691288
 22
269.77440192656348
 13
286.92728837691288
 23
269.77440192656348
  0
POINT
  8
_0-7_DEFPOINTS
 62
    7
 10
228.33306903391289
 20
261.77440192656348
  0
POINT
  8
_0-7_DEFPOINTS
 62
    7
 10
222.02132990091288
 20
269.77440192656348
  0
POINT
  8
_0-7_DEFPOINTS
 62
    7
 10
286.92728837691288
 20
269.77440192656348
  0
ENDBLK
  0
BLOCK
  2
-012-_D12
 70
   64
 10
0
 20
0
 30
0
  0
LINE
  8
_0-2_SUNPOU
  6
CONTINUOUS
 62
    7
 10
120.6475504562925
 20
269.77440192656348
 11
154.72964493929251
 21
269.77440192656342
  0
LINE
  8
_0-2_SUNPOU
  6
CONTINUOUS
 62
    7
 10
120.6475504562925
 20
129.77440192656359
 11
154.72964493929251
 21
129.77440192656359
  0
LINE
  8
_0-2_SUNPOU
  6
CONTINUOUS
 62
    7
 10
154.5496449392925
 20
267.77440192656342
 11
154.5496449392925
 21
131.77440192656359
  0
SOLID
  8
_0-2_SUNPOU
  6
CONTINUOUS
 62
    7
 10
154.21631160595919
 20
267.77440192656342
 11
154.88297827262579
 21
267.77440192656342
 12
154.5496449392925
 22
269.77440192656342
 13
154.5496449392925
 23
269.77440192656342
  0
SOLID
  8
_0-2_SUNPOU
  6
CONTINUOUS
 62
    7
 10
154.2163116059591
 20
131.77440192656359
 11
154.88297827262579
 21
131.77440192656359
 12
154.5496449392925
 22
129.77440192656359
 13
154.5496449392925
 23
129.77440192656359
  0
TEXT
  8
_0-2_SUNPOU
 62
    7
 10
153.5496449392925
 20
197.67440192656351
 40
2.799999999999998
 41
1
 50
90
  1
140
  0
POINT
  8
_0-7_DEFPOINTS
 62
    7
 10
120.5850504562925
 20
269.77440192656348
  0
POINT
  8
_0-7_DEFPOINTS
 62
    7
 10
120.5850504562925
 20
129.77440192656359
  0
POINT
  8
_0-7_DEFPOINTS
 62
    7
 10
154.5496449392925
 20
129.77440192656359
  0
ENDBLK
  0
BLOCK
  2
-013-_D13
 70
   64
 10
0
 20
0
 30
0
  0
LINE
  8
_0-2_SUNPOU
  6
CONTINUOUS
 62
    7
 10
192.0213299009128
 20
129.71190192656359
 11
192.0213299009128
 21
97.874632195563563
  0
LINE
  8
_0-2_SUNPOU
  6
CONTINUOUS
 62
    7
 10
222.02132990091288
 20
129.71190192656359
 11
222.02132990091288
 21
97.874632195563563
  0
LINE
  8
_0-2_SUNPOU
  6
CONTINUOUS
 62
    7
 10
194.0213299009128
 20
98.054632195563584
 11
220.02132990091288
 21
98.054632195563584
  0
SOLID
  8
_0-2_SUNPOU
  6
CONTINUOUS
 62
    7
 10
194.0213299009128
 20
98.387965528896884
 11
194.0213299009128
 21
97.721298862230256
 12
192.0213299009128
 22
98.054632195563584
 13
192.0213299009128
 23
98.054632195563584
  0
SOLID
  8
_0-2_SUNPOU
  6
CONTINUOUS
 62
    7
 10
220.02132990091288
 20
98.387965528896884
 11
220.02132990091288
 21
97.721298862230256
 12
222.02132990091288
 22
98.054632195563584
 13
222.02132990091288
 23
98.054632195563584
  0
TEXT
  8
_0-2_SUNPOU
 62
    7
 10
205.62132990091279
 20
99.054632195563598
 40
2.799999999999998
 41
1
 50
0
  1
30
  0
POINT
  8
_0-7_DEFPOINTS
 62
    7
 10
192.0213299009128
 20
129.77440192656359
  0
POINT
  8
_0-7_DEFPOINTS
 62
    7
 10
222.02132990091288
 20
129.77440192656359
  0
POINT
  8
_0-7_DEFPOINTS
 62
    7
 10
222.02132990091288
 20
98.054632195563584
  0
ENDBLK
  0
BLOCK
  2
-014-_D14
 70
   64
 10
0
 20
0
 30
0
  0
LINE
  8
_0-2_SUNPOU
  6
CONTINUOUS
 62
    7
 10
120.6475504562925
 20
129.77440192656359
 11
144.37442188829248
 21
129.77440192656359
  0
LINE
  8
_0-2_SUNPOU
  6
CONTINUOUS
 62
    7
 10
117.4475504562925
 20
148.77440192656351
 11
144.37442188829248
 21
148.77440192656351
  0
LINE
  8
_0-2_SUNPOU
  6
CONTINUOUS
 62
    7
 10
144.1944218882925
 20
131.77440192656359
 11
144.1944218882925
 21
146.77440192656351
  0
SOLID
  8
_0-2_SUNPOU
  6
CONTINUOUS
 62
    7
 10
143.86108855495911
 20
131.77440192656359
 11
144.52775522162579
 21
131.77440192656359
 12
144.1944218882925
 22
129.77440192656359
 13
144.1944218882925
 23
129.77440192656359
  0
SOLID
  8
_0-2_SUNPOU
  6
CONTINUOUS
 62
    7
 10
143.86108855495911
 20
146.77440192656351
 11
144.52775522162579
 21
146.77440192656351
 12
144.1944218882925
 22
148.77440192656351
 13
144.1944218882925
 23
148.77440192656351
  0
TEXT
  8
_0-2_SUNPOU
 62
    7
 10
143.19442188829239
 20
137.8744019265635
 40
2.799999999999998
 41
1
 50
90
  1
19
  0
POINT
  8
_0-7_DEFPOINTS
 62
    7
 10
120.5850504562925
 20
129.77440192656359
  0
POINT
  8
_0-7_DEFPOINTS
 62
    7
 10
117.3850504562925
 20
148.77440192656351
  0
POINT
  8
_0-7_DEFPOINTS
 62
    7
 10
144.1944218882925
 20
148.77440192656351
  0
ENDBLK
  0
BLOCK
  2
-015-_D15
 70
   64
 10
0
 20
0
 30
0
  0
LINE
  8
_0-2_SUNPOU
  6
CONTINUOUS
 62
    7
 10
117.4475504562925
 20
148.77440192656351
 11
144.3744218882924
 21
148.77440192656351
  0
LINE
  8
_0-2_SUNPOU
  6
CONTINUOUS
 62
    7
 10
117.4475504562925
 20
250.77440192656351
 11
144.37442188829248
 21
250.77440192656351
  0
LINE
  8
_0-2_SUNPOU
  6
CONTINUOUS
 62
    7
 10
144.1944218882925
 20
150.77440192656351
 11
144.1944218882925
 21
248.77440192656351
  0
SOLID
  8
_0-2_SUNPOU
  6
CONTINUOUS
 62
    7
 10
143.86108855495911
 20
150.77440192656351
 11
144.52775522162579
 21
150.77440192656351
 12
144.1944218882925
 22
148.77440192656351
 13
144.1944218882925
 23
148.77440192656351
  0
SOLID
  8
_0-2_SUNPOU
  6
CONTINUOUS
 62
    7
 10
143.86108855495911
 20
248.77440192656351
 11
144.52775522162579
 21
248.77440192656351
 12
144.1944218882925
 22
250.77440192656351
 13
144.1944218882925
 23
250.77440192656351
  0
TEXT
  8
_0-2_SUNPOU
 62
    7
 10
143.19442188829239
 20
197.67440192656351
 40
2.799999999999998
 41
1
 50
90
  1
102
  0
POINT
  8
_0-7_DEFPOINTS
 62
    7
 10
117.3850504562925
 20
148.77440192656351
  0
POINT
  8
_0-7_DEFPOINTS
 62
    7
 10
117.3850504562925
 20
250.77440192656351
  0
POINT
  8
_0-7_DEFPOINTS
 62
    7
 10
144.1944218882925
 20
250.77440192656351
  0
ENDBLK
  0
BLOCK
  2
-016-_D16
 70
   64
 10
0
 20
0
 30
0
  0
LINE
  8
_0-2_SUNPOU
  6
CONTINUOUS
 62
    7
 10
117.4475504562925
 20
250.77440192656351
 11
144.37442188829248
 21
250.77440192656351
  0
LINE
  8
_0-2_SUNPOU
  6
CONTINUOUS
 62
    7
 10
120.6475504562925
 20
269.77440192656348
 11
144.37442188829248
 21
269.77440192656342
  0
LINE
  8
_0-2_SUNPOU
  6
CONTINUOUS
 62
    7
 10
144.1944218882925
 20
252.77440192656351
 11
144.1944218882925
 21
267.77440192656342
  0
SOLID
  8
_0-2_SUNPOU
  6
CONTINUOUS
 62
    7
 10
143.86108855495911
 20
252.77440192656351
 11
144.52775522162579
 21
252.77440192656351
 12
144.1944218882925
 22
250.77440192656351
 13
144.1944218882925
 23
250.77440192656351
  0
SOLID
  8
_0-2_SUNPOU
  6
CONTINUOUS
 62
    7
 10
143.86108855495911
 20
267.77440192656342
 11
144.52775522162579
 21
267.77440192656342
 12
144.1944218882925
 22
269.77440192656342
 13
144.1944218882925
 23
269.77440192656342
  0
TEXT
  8
_0-2_SUNPOU
 62
    7
 10
143.19442188829239
 20
258.8744019265635
 40
2.799999999999998
 41
1
 50
90
  1
19
  0
POINT
  8
_0-7_DEFPOINTS
 62
    7
 10
117.3850504562925
 20
250.77440192656351
  0
POINT
  8
_0-7_DEFPOINTS
 62
    7
 10
120.5850504562925
 20
269.77440192656348
  0
POINT
  8
_0-7_DEFPOINTS
 62
    7
 10
144.1944218882925
 20
269.77440192656342
  0
ENDBLK
  0
BLOCK
  2
-017-_D17
 70
   64
 10
0
 20
0
 30
0
  0
LINE
  8
_0-2_SUNPOU
  6
CONTINUOUS
 62
    7
 10
118.34755045629249
 20
149.97440192656358
 11
133.30881414429239
 21
149.97440192656358
  0
LINE
  8
_0-2_SUNPOU
  6
CONTINUOUS
 62
    7
 10
118.34755045629249
 20
249.97440192656358
 11
133.30881414429251
 21
249.97440192656358
  0
LINE
  8
_0-2_SUNPOU
  6
CONTINUOUS
 62
    7
 10
133.12881414429239
 20
151.97440192656358
 11
133.1288141442925
 21
247.97440192656358
  0
SOLID
  8
_0-2_SUNPOU
  6
CONTINUOUS
 62
    7
 10
132.7954808109591
 20
151.97440192656358
 11
133.46214747762579
 21
151.97440192656358
 12
133.12881414429239
 22
149.97440192656358
 13
133.12881414429239
 23
149.97440192656358
  0
SOLID
  8
_0-2_SUNPOU
  6
CONTINUOUS
 62
    7
 10
132.7954808109591
 20
247.97440192656358
 11
133.46214747762579
 21
247.97440192656358
 12
133.1288141442925
 22
249.97440192656358
 13
133.1288141442925
 23
249.97440192656358
  0
TEXT
  8
_0-2_SUNPOU
 62
    7
 10
132.12881414429239
 20
197.87440192656359
 40
2.799999999999998
 41
1
 50
90
  1
100
  0
POINT
  8
_0-7_DEFPOINTS
 62
    7
 10
118.28505045629249
 20
149.97440192656358
  0
POINT
  8
_0-7_DEFPOINTS
 62
    7
 10
118.28505045629249
 20
249.97440192656358
  0
POINT
  8
_0-7_DEFPOINTS
 62
    7
 10
133.1288141442925
 20
249.97440192656358
  0
ENDBLK
  0
BLOCK
  2
-018-_D18
 70
   64
 10
0
 20
0
 30
0
  0
LINE
  8
_0-2_SUNPOU
  6
CONTINUOUS
 62
    7
 10
192.0213299009128
 20
129.71190192656359
 11
192.0213299009128
 21
112.30090599656359
  0
LINE
  8
_0-2_SUNPOU
  6
CONTINUOUS
 62
    7
 10
199.0213299009128
 20
122.35233356556359
 11
199.0213299009128
 21
112.30090599656359
  0
LINE
  8
_0-2_SUNPOU
  6
CONTINUOUS
 62
    7
 10
194.0213299009128
 20
112.4809059965636
 11
197.0213299009128
 21
112.4809059965636
  0
SOLID
  8
_0-2_SUNPOU
  6
CONTINUOUS
 62
    7
 10
194.0213299009128
 20
112.8142393298969
 11
194.0213299009128
 21
112.1475726632302
 12
192.0213299009128
 22
112.4809059965636
 13
192.0213299009128
 23
112.4809059965636
  0
SOLID
  8
_0-2_SUNPOU
  6
CONTINUOUS
 62
    7
 10
197.0213299009128
 20
112.8142393298969
 11
197.0213299009128
 21
112.1475726632302
 12
199.0213299009128
 22
112.4809059965636
 13
199.0213299009128
 23
112.4809059965636
  0
TEXT
  8
_0-2_SUNPOU
 62
    7
 10
194.82132990091281
 20
113.48090599656359
 40
2.799999999999998
 41
1
 50
0
  1
7
  0
POINT
  8
_0-7_DEFPOINTS
 62
    7
 10
192.0213299009128
 20
129.77440192656359
  0
POINT
  8
_0-7_DEFPOINTS
 62
    7
 10
199.0213299009128
 20
122.41483356556359
  0
POINT
  8
_0-7_DEFPOINTS
 62
    7
 10
199.0213299009128
 20
112.4809059965636
  0
ENDBLK
  0
BLOCK
  2
-019-_D19
 70
   64
 10
0
 20
0
 30
0
  0
LINE
  8
_0-2_SUNPOU
  6
CONTINUOUS
 62
    7
 10
199.0213299009128
 20
122.35233356556359
 11
199.0213299009128
 21
112.30090599656359
  0
LINE
  8
_0-2_SUNPOU
  6
CONTINUOUS
 62
    7
 10
215.0213299009128
 20
119.82610974956359
 11
215.0213299009128
 21
112.30090599656359
  0
LINE
  8
_0-2_SUNPOU
  6
CONTINUOUS
 62
    7
 10
201.0213299009128
 20
112.4809059965636
 11
213.0213299009128
 21
112.4809059965636
  0
SOLID
  8
_0-2_SUNPOU
  6
CONTINUOUS
 62
    7
 10
201.0213299009128
 20
112.8142393298969
 11
201.0213299009128
 21
112.1475726632302
 12
199.0213299009128
 22
112.4809059965636
 13
199.0213299009128
 23
112.4809059965636
  0
SOLID
  8
_0-2_SUNPOU
  6
CONTINUOUS
 62
    7
 10
213.0213299009128
 20
112.8142393298969
 11
213.0213299009128
 21
112.1475726632302
 12
215.0213299009128
 22
112.4809059965636
 13
215.0213299009128
 23
112.4809059965636
  0
TEXT
  8
_0-2_SUNPOU
 62
    7
 10
205.62132990091279
 20
113.48090599656359
 40
2.799999999999998
 41
1
 50
0
  1
16
  0
POINT
  8
_0-7_DEFPOINTS
 62
    7
 10
199.0213299009128
 20
122.41483356556359
  0
POINT
  8
_0-7_DEFPOINTS
 62
    7
 10
215.0213299009128
 20
119.88860974956359
  0
POINT
  8
_0-7_DEFPOINTS
 62
    7
 10
215.0213299009128
 20
112.4809059965636
  0
ENDBLK
  0
BLOCK
  2
-020-_D20
 70
   64
 10
0
 20
0
 30
0
  0
LINE
  8
_0-2_SUNPOU
  6
CONTINUOUS
 62
    7
 10
215.0213299009128
 20
119.82610974956359
 11
215.0213299009128
 21
112.30090599656359
  0
LINE
  8
_0-2_SUNPOU
  6
CONTINUOUS
 62
    7
 10
222.02132990091288
 20
129.71190192656359
 11
222.02132990091288
 21
112.30090599656359
  0
LINE
  8
_0-2_SUNPOU
  6
CONTINUOUS
 62
    7
 10
217.0213299009128
 20
112.4809059965636
 11
220.02132990091288
 21
112.4809059965636
  0
SOLID
  8
_0-2_SUNPOU
  6
CONTINUOUS
 62
    7
 10
217.0213299009128
 20
112.8142393298969
 11
217.0213299009128
 21
112.1475726632302
 12
215.0213299009128
 22
112.4809059965636
 13
215.0213299009128
 23
112.4809059965636
  0
SOLID
  8
_0-2_SUNPOU
  6
CONTINUOUS
 62
    7
 10
220.02132990091288
 20
112.8142393298969
 11
220.02132990091288
 21
112.1475726632302
 12
222.02132990091288
 22
112.4809059965636
 13
222.02132990091288
 23
112.4809059965636
  0
TEXT
  8
_0-2_SUNPOU
 62
    7
 10
217.8213299009129
 20
113.48090599656359
 40
2.799999999999998
 41
1
 50
0
  1
7
  0
POINT
  8
_0-7_DEFPOINTS
 62
    7
 10
215.0213299009128
 20
119.88860974956359
  0
POINT
  8
_0-7_DEFPOINTS
 62
    7
 10
222.02132990091288
 20
129.77440192656359
  0
POINT
  8
_0-7_DEFPOINTS
 62
    7
 10
222.02132990091288
 20
112.4809059965636
  0
ENDBLK
  0
BLOCK
  2
-021-_D21
 70
   64
 10
0
 20
0
 30
0
  0
LINE
  8
_0-2_SUNPOU
  6
CONTINUOUS
 62
    7
 10
69.585050456292506
 20
251.77440192656669
 11
69.585050456292506
 21
275.31427443661698
  0
LINE
  8
_0-2_SUNPOU
  6
CONTINUOUS
 62
    7
 10
120.6475504562925
 20
270.77440192656348
 11
120.6475504562925
 21
275.31427443661698
  0
LINE
  8
_0-2_SUNPOU
  6
CONTINUOUS
 62
    7
 10
71.585050456292506
 20
274.31427443661698
 11
118.6475504562925
 21
274.31427443661698
  0
SOLID
  8
_0-2_SUNPOU
  6
CONTINUOUS
 62
    7
 10
71.585050456292506
 20
274.64760776995029
 11
71.585050456292506
 21
273.98094110328372
 12
69.585050456292506
 22
274.31427443661698
 13
69.585050456292506
 23
274.31427443661698
  0
SOLID
  8
_0-2_SUNPOU
  6
CONTINUOUS
 62
    7
 10
118.6475504562925
 20
274.64760776995029
 11
118.6475504562925
 21
273.98094110328372
 12
120.6475504562925
 22
274.31427443661698
 13
120.6475504562925
 23
274.31427443661698
  0
TEXT
  8
_0-2_SUNPOU
 62
    7
 10
93.616300456292492
 20
275.31427443661698
 40
3
 41
1
 50
0
  1
51
  0
POINT
  8
_0-7_DEFPOINTS
 62
    7
 10
69.585050456292506
 20
250.77440192656669
  0
POINT
  8
_0-7_DEFPOINTS
 62
    7
 10
120.6475504562925
 20
269.77440192656348
  0
POINT
  8
_0-7_DEFPOINTS
 62
    7
 10
120.6475504562925
 20
274.31427443661698
  0
ENDBLK
  0
BLOCK
  2
-022-_D22
 70
   64
 10
0
 20
0
 30
0
  0
LINE
  8
_0-2_SUNPOU
  6
CONTINUOUS
 62
    7
 10
258.72132990091279
 20
246.57440192556359
 11
258.72132990091279
 21
255.68215915089808
  0
LINE
  8
_0-2_SUNPOU
  6
CONTINUOUS
 62
    7
 10
250.22132989991288
 20
245.66820012059909
 11
250.22132989991288
 21
255.68215915089808
  0
LINE
  8
_0-2_SUNPOU
  6
CONTINUOUS
 62
    7
 10
256.72132990091279
 20
254.68215915089808
 11
252.22132989991288
 21
254.68215915089808
  0
SOLID
  8
_0-2_SUNPOU
  6
CONTINUOUS
 62
    7
 10
256.72132990091279
 20
255.0154924842314
 11
256.72132990091279
 21
254.34882581756468
 12
258.72132990091279
 22
254.68215915089808
 13
258.72132990091279
 23
254.68215915089808
  0
SOLID
  8
_0-2_SUNPOU
  6
CONTINUOUS
 62
    7
 10
252.22132989991288
 20
255.0154924842314
 11
252.22132989991288
 21
254.34882581756468
 12
250.22132989991288
 22
254.68215915089808
 13
250.22132989991288
 23
254.68215915089808
  0
TEXT
  8
_0-2_SUNPOU
 62
    7
 10
253.72132990041291
 20
255.68215915089808
 40
3
 41
1
 50
0
  1
9
  0
POINT
  8
_0-7_DEFPOINTS
 62
    7
 10
258.72132990091279
 20
244.57440192556359
  0
POINT
  8
_0-7_DEFPOINTS
 62
    7
 10
250.22132989991288
 20
243.66820012059909
  0
POINT
  8
_0-7_DEFPOINTS
 62
    7
 10
250.22132989991288
 20
254.68215915089808
  0
ENDBLK
  0
BLOCK
  2
-023-_D23
 70
   64
 10
0
 20
0
 30
0
  0
LINE
  8
_0-2_SUNPOU
  6
CONTINUOUS
 62
    7
 10
379.4175432441342
 20
225.06898344897189
 11
379.4175432441342
 21
240.77320526759478
  0
LINE
  8
_0-2_SUNPOU
  6
CONTINUOUS
 62
    7
 10
328.4175432441342
 20
225.06898344897189
 11
328.4175432441342
 21
240.77320526759478
  0
LINE
  8
_0-2_SUNPOU
  6
CONTINUOUS
 62
    7
 10
377.4175432441342
 20
239.77320526759478
 11
330.4175432441342
 21
239.77320526759478
  0
SOLID
  8
_0-2_SUNPOU
  6
CONTINUOUS
 62
    7
 10
377.4175432441342
 20
240.1065386009281
 11
377.4175432441342
 21
239.4398719342615
 12
379.4175432441342
 22
239.77320526759478
 13
379.4175432441342
 23
239.77320526759478
  0
SOLID
  8
_0-2_SUNPOU
  6
CONTINUOUS
 62
    7
 10
330.4175432441342
 20
240.1065386009281
 11
330.4175432441342
 21
239.4398719342615
 12
328.4175432441342
 22
239.77320526759478
 13
328.4175432441342
 23
239.77320526759478
  0
TEXT
  8
_0-2_SUNPOU
 62
    7
 10
352.4175432441342
 20
240.77320526759478
 40
3
 41
1
 50
0
  1
51
  0
POINT
  8
_0-7_DEFPOINTS
 62
    7
 10
379.4175432441342
 20
224.0689834489718
  0
POINT
  8
_0-7_DEFPOINTS
 62
    7
 10
328.4175432441342
 20
224.0689834489718
  0
POINT
  8
_0-7_DEFPOINTS
 62
    7
 10
328.4175432441342
 20
239.77320526759478
  0
ENDBLK
  0
BLOCK
  2
-024-_D24
 70
   64
 10
0
 20
0
 30
0
  0
LINE
  8
_0-2_SUNPOU
  6
CONTINUOUS
 62
    7
 10
381.01754324413417
 20
225.06898344897189
 11
381.01754324413417
 21
243.3062585105315
  0
LINE
  8
_0-2_SUNPOU
  6
CONTINUOUS
 62
    7
 10
385.01754324413417
 20
228.06898344897189
 11
385.01754324413417
 21
243.3062585105315
  0
LINE
  8
_0-2_SUNPOU
  6
CONTINUOUS
 62
    7
 10
379.01754324413417
 20
242.3062585105315
 11
377.01754324413417
 21
242.3062585105315
  0
LINE
  8
_0-2_SUNPOU
  6
CONTINUOUS
 62
    7
 10
387.01754324413417
 20
242.3062585105315
 11
389.01754324413417
 21
242.3062585105315
  0
TEXT
  8
_0-2_SUNPOU
 62
    7
 10
377.6289762876741
 20
243.40816507748229
 40
3
 41
1
 50
0
  1
※4  
  0
LINE
  8
_0-2_SUNPOU
  6
CONTINUOUS
 62
    7
 10
381.01754324413417
 20
242.3062585105315
 11
385.01754324413417
 21
242.3062585105315
  0
SOLID
  8
_0-2_SUNPOU
  6
CONTINUOUS
 62
    7
 10
379.01754324413417
 20
242.63959184386479
 11
379.01754324413417
 21
241.97292517719819
 12
381.01754324413417
 22
242.3062585105315
 13
381.01754324413417
 23
242.3062585105315
  0
SOLID
  8
_0-2_SUNPOU
  6
CONTINUOUS
 62
    7
 10
387.01754324413417
 20
242.63959184386479
 11
387.01754324413417
 21
241.97292517719819
 12
385.01754324413417
 22
242.3062585105315
 13
385.01754324413417
 23
242.3062585105315
  0
POINT
  8
_0-7_DEFPOINTS
 62
    7
 10
381.01754324413417
 20
224.0689834489718
  0
POINT
  8
_0-7_DEFPOINTS
 62
    7
 10
385.01754324413417
 20
227.06898344897189
  0
POINT
  8
_0-7_DEFPOINTS
 62
    7
 10
385.01754324413417
 20
242.3062585105315
  0
ENDBLK
  0
BLOCK
  2
-025-_D25
 70
   64
 10
0
 20
0
 30
0
  0
LINE
  8
_0-2_SUNPOU
  6
CONTINUOUS
 62
    7
 10
382.01754324413428
 20
217.0689834489718
 11
398.0076649966146
 21
217.0689834489718
  0
LINE
  8
_0-2_SUNPOU
  6
CONTINUOUS
 62
    7
 10
380.4175432441342
 20
224.0689834489718
 11
398.0076649966146
 21
224.0689834489718
  0
LINE
  8
_0-2_SUNPOU
  6
CONTINUOUS
 62
    7
 10
397.00766499661449
 20
219.0689834489718
 11
397.00766499661449
 21
222.0689834489718
  0
SOLID
  8
_0-2_SUNPOU
  6
CONTINUOUS
 62
    7
 10
396.67433166328129
 20
219.0689834489718
 11
397.34099832994792
 21
219.0689834489718
 12
397.00766499661449
 22
217.0689834489718
 13
397.00766499661449
 23
217.0689834489718
  0
SOLID
  8
_0-2_SUNPOU
  6
CONTINUOUS
 62
    7
 10
396.67433166328129
 20
222.0689834489718
 11
397.34099832994792
 21
222.0689834489718
 12
397.00766499661449
 22
224.0689834489718
 13
397.00766499661449
 23
224.0689834489718
  0
TEXT
  8
_0-2_SUNPOU
 62
    7
 10
396.00766499661449
 20
219.81898344897189
 40
3
 41
1
 50
90
  1
7
  0
POINT
  8
_0-7_DEFPOINTS
 62
    7
 10
381.01754324413428
 20
217.0689834489718
  0
POINT
  8
_0-7_DEFPOINTS
 62
    7
 10
379.4175432441342
 20
224.0689834489718
  0
POINT
  8
_0-7_DEFPOINTS
 62
    7
 10
397.00766499661449
 20
224.0689834489718
  0
ENDBLK
  0
BLOCK
  2
-026-_D26
 70
   64
 10
0
 20
0
 30
0
  0
LINE
  8
_0-2_SUNPOU
  6
CONTINUOUS
 62
    7
 10
311.78389093007342
 20
225.6689834489718
 11
309.85328674465182
 21
225.6689834489718
  0
LINE
  8
_0-2_SUNPOU
  6
CONTINUOUS
 62
    7
 10
311.78389093007342
 20
185.6689834489718
 11
309.85328674465182
 21
185.6689834489718
  0
LINE
  8
_0-2_SUNPOU
  6
CONTINUOUS
 62
    7
 10
310.85328674465182
 20
223.6689834489718
 11
310.85328674465182
 21
187.6689834489718
  0
SOLID
  8
_0-2_SUNPOU
  6
CONTINUOUS
 62
    7
 10
310.51995341131851
 20
223.6689834489718
 11
311.18662007798508
 21
223.6689834489718
 12
310.85328674465182
 22
225.6689834489718
 13
310.85328674465182
 23
225.6689834489718
  0
SOLID
  8
_0-2_SUNPOU
  6
CONTINUOUS
 62
    7
 10
310.51995341131851
 20
187.6689834489718
 11
311.18662007798508
 21
187.6689834489718
 12
310.85328674465182
 22
185.6689834489718
 13
310.85328674465182
 23
185.6689834489718
  0
TEXT
  8
_0-2_SUNPOU
 62
    7
 10
309.85328674465182
 20
203.2726127199815
 40
3
 41
1
 50
90
  1
40
  0
POINT
  8
_0-7_DEFPOINTS
 62
    7
 10
312.78389093007342
 20
225.6689834489718
  0
POINT
  8
_0-7_DEFPOINTS
 62
    7
 10
312.78389093007342
 20
185.6689834489718
  0
POINT
  8
_0-7_DEFPOINTS
 62
    7
 10
310.85328674465182
 20
185.6689834489718
  0
ENDBLK
  0
BLOCK
  2
-027-_D27
 70
   64
 10
0
 20
0
 30
0
  0
LINE
  8
_0-2_SUNPOU
  6
CONTINUOUS
 62
    7
 10
370.01754324413417
 20
151.43712931730769
 11
370.01754324413417
 21
137.71872100970671
  0
LINE
  8
_0-2_SUNPOU
  6
CONTINUOUS
 62
    7
 10
366.81754324413418
 20
156.43712931730769
 11
366.81754324413418
 21
137.71872100970671
  0
LINE
  8
_0-2_SUNPOU
  6
CONTINUOUS
 62
    7
 10
372.01754324413417
 20
138.71872100970671
 11
374.01754324413417
 21
138.71872100970671
  0
LINE
  8
_0-2_SUNPOU
  6
CONTINUOUS
 62
    7
 10
364.81754324413418
 20
138.71872100970671
 11
362.81754324413418
 21
138.71872100970671
  0
TEXT
  8
_0-2_SUNPOU
 62
    7
 10
366.33444176793091
 20
133.3790839825038
 40
3
 41
1
 50
0
  1
3.2
  0
LINE
  8
_0-2_SUNPOU
  6
CONTINUOUS
 62
    7
 10
370.01754324413417
 20
138.71872100970671
 11
366.81754324413418
 21
138.71872100970671
  0
SOLID
  8
_0-2_SUNPOU
  6
CONTINUOUS
 62
    7
 10
372.01754324413417
 20
139.05205434303999
 11
372.01754324413417
 21
138.38538767637331
 12
370.01754324413417
 22
138.71872100970671
 13
370.01754324413417
 23
138.71872100970671
  0
SOLID
  8
_0-2_SUNPOU
  6
CONTINUOUS
 62
    7
 10
364.81754324413418
 20
139.05205434303999
 11
364.81754324413418
 21
138.38538767637331
 12
366.81754324413418
 22
138.71872100970671
 13
366.81754324413418
 23
138.71872100970671
  0
POINT
  8
_0-7_DEFPOINTS
 62
    7
 10
370.01754324413417
 20
152.43712931730769
  0
POINT
  8
_0-7_DEFPOINTS
 62
    7
 10
366.81754324413418
 20
157.43712931730769
  0
POINT
  8
_0-7_DEFPOINTS
 62
    7
 10
366.81754324413418
 20
138.71872100970671
  0
ENDBLK
  0
BLOCK
  2
-028-_D28
 70
   64
 10
0
 20
0
 30
0
  0
LINE
  8
_0-2_SUNPOU
  6
CONTINUOUS
 62
    7
 10
327.41754324413409
 20
224.0689834489718
 11
320.62727920442688
 21
224.0689834489718
  0
LINE
  8
_0-2_SUNPOU
  6
CONTINUOUS
 62
    7
 10
327.41754324413409
 20
194.0689834489718
 11
320.62727920442688
 21
194.0689834489718
  0
LINE
  8
_0-2_SUNPOU
  6
CONTINUOUS
 62
    7
 10
321.62727920442688
 20
222.0689834489718
 11
321.62727920442688
 21
196.0689834489718
  0
SOLID
  8
_0-2_SUNPOU
  6
CONTINUOUS
 62
    7
 10
321.29394587109362
 20
222.0689834489718
 11
321.96061253776019
 21
222.0689834489718
 12
321.62727920442688
 22
224.0689834489718
 13
321.62727920442688
 23
224.0689834489718
  0
SOLID
  8
_0-2_SUNPOU
  6
CONTINUOUS
 62
    7
 10
321.29394587109362
 20
196.0689834489718
 11
321.96061253776019
 21
196.0689834489718
 12
321.62727920442688
 22
194.0689834489718
 13
321.62727920442688
 23
194.0689834489718
  0
TEXT
  8
_0-2_SUNPOU
 62
    7
 10
320.62727920442682
 20
207.56898344897189
 40
3
 41
1
 50
90
  1
30
  0
POINT
  8
_0-7_DEFPOINTS
 62
    7
 10
328.4175432441342
 20
224.0689834489718
  0
POINT
  8
_0-7_DEFPOINTS
 62
    7
 10
328.4175432441342
 20
194.0689834489718
  0
POINT
  8
_0-7_DEFPOINTS
 62
    7
 10
321.62727920442688
 20
194.0689834489718
  0
ENDBLK
  0
BLOCK
  2
-029-_D29
 70
   64
 10
0
 20
0
 30
0
  0
LINE
  8
_0-2_SUNPOU
  6
CONTINUOUS
 62
    7
 10
364.21754324413421
 20
157.36898344897178
 11
300.2809854962532
 21
157.36898344897178
  0
LINE
  8
_0-2_SUNPOU
  6
CONTINUOUS
 62
    7
 10
327.41754324413409
 20
224.0689834489718
 11
300.2809854962532
 21
224.06898344897189
  0
LINE
  8
_0-2_SUNPOU
  6
CONTINUOUS
 62
    7
 10
301.2809854962532
 20
159.36898344897178
 11
301.2809854962532
 21
222.06898344897189
  0
SOLID
  8
_0-2_SUNPOU
  6
CONTINUOUS
 62
    7
 10
300.94765216291989
 20
159.36898344897178
 11
301.61431882958652
 21
159.36898344897178
 12
301.2809854962532
 22
157.36898344897178
 13
301.2809854962532
 23
157.36898344897178
  0
SOLID
  8
_0-2_SUNPOU
  6
CONTINUOUS
 62
    7
 10
300.94765216291989
 20
222.06898344897189
 11
301.61431882958652
 21
222.06898344897189
 12
301.2809854962532
 22
224.06898344897189
 13
301.2809854962532
 23
224.06898344897189
  0
TEXT
  8
_0-2_SUNPOU
 62
    7
 10
300.28098549625309
 20
189.21898344897189
 40
3
 41
1
 50
90
  1
67
  0
POINT
  8
_0-7_DEFPOINTS
 62
    7
 10
365.21754324413421
 20
157.36898344897178
  0
POINT
  8
_0-7_DEFPOINTS
 62
    7
 10
328.4175432441342
 20
224.0689834489718
  0
POINT
  8
_0-7_DEFPOINTS
 62
    7
 10
301.2809854962532
 20
224.06898344897189
  0
ENDBLK
  0
BLOCK
  2
-030-_D30
 70
   64
 10
0
 20
0
 30
0
  0
LINE
  8
_0-2_SUNPOU
  6
CONTINUOUS
 62
    7
 10
370.81754324413418
 20
231.98524304297188
 11
370.81754324413418
 21
233.75859506264649
  0
LINE
  8
_0-2_SUNPOU
  6
CONTINUOUS
 62
    7
 10
379.4175432441342
 20
225.06898344897189
 11
379.4175432441342
 21
233.75859506264649
  0
LINE
  8
_0-2_SUNPOU
  6
CONTINUOUS
 62
    7
 10
372.81754324413418
 20
232.75859506264649
 11
377.4175432441342
 21
232.75859506264649
  0
SOLID
  8
_0-2_SUNPOU
  6
CONTINUOUS
 62
    7
 10
372.81754324413418
 20
233.0919283959798
 11
372.81754324413418
 21
232.4252617293132
 12
370.81754324413418
 22
232.75859506264649
 13
370.81754324413418
 23
232.75859506264649
  0
SOLID
  8
_0-2_SUNPOU
  6
CONTINUOUS
 62
    7
 10
377.4175432441342
 20
233.0919283959798
 11
377.4175432441342
 21
232.4252617293132
 12
379.4175432441342
 22
232.75859506264649
 13
379.4175432441342
 23
232.75859506264649
  0
TEXT
  8
_0-2_SUNPOU
 62
    7
 10
372.86754324413431
 20
233.75859506264649
 40
3
 41
1
 50
0
  1
8.6
  0
POINT
  8
_0-7_DEFPOINTS
 62
    7
 10
370.81754324413418
 20
230.98524304297188
  0
POINT
  8
_0-7_DEFPOINTS
 62
    7
 10
379.4175432441342
 20
224.0689834489718
  0
POINT
  8
_0-7_DEFPOINTS
 62
    7
 10
379.4175432441342
 20
232.75859506264649
  0
ENDBLK
  0
BLOCK
  2
-031-_D31
 70
   64
 10
0
 20
0
 30
0
  0
LINE
  8
_0-2_SUNPOU
  6
CONTINUOUS
 62
    7
 10
120.5850504562925
 20
270.77440192656348
 11
120.5850504562925
 21
279.15949740969642
  0
LINE
  8
_0-2_SUNPOU
  6
CONTINUOUS
 62
    7
 10
111.98505045629249
 20
268.71155045856357
 11
111.98505045629249
 21
279.15949740969642
  0
LINE
  8
_0-2_SUNPOU
  6
CONTINUOUS
 62
    7
 10
118.5850504562925
 20
278.15949740969642
 11
113.98505045629249
 21
278.15949740969642
  0
SOLID
  8
_0-2_SUNPOU
  6
CONTINUOUS
 62
    7
 10
118.5850504562925
 20
278.49283074302968
 11
118.5850504562925
 21
277.82616407636311
 12
120.5850504562925
 22
278.15949740969642
 13
120.5850504562925
 23
278.15949740969642
  0
SOLID
  8
_0-2_SUNPOU
  6
CONTINUOUS
 62
    7
 10
113.98505045629249
 20
278.49283074302968
 11
113.98505045629249
 21
277.82616407636311
 12
111.98505045629249
 22
278.15949740969642
 13
111.98505045629249
 23
278.15949740969642
  0
TEXT
  8
_0-2_SUNPOU
 62
    7
 10
114.03505045629249
 20
279.15949740969631
 40
3
 41
1
 50
0
  1
8.6
  0
POINT
  8
_0-7_DEFPOINTS
 62
    7
 10
120.5850504562925
 20
269.77440192656348
  0
POINT
  8
_0-7_DEFPOINTS
 62
    7
 10
111.98505045629249
 20
267.71155045856357
  0
POINT
  8
_0-7_DEFPOINTS
 62
    7
 10
111.98505045629249
 20
278.15949740969642
  0
ENDBLK
  0
BLOCK
  2
-032-_D32
 70
   64
 10
0
 20
0
 30
0
  0
LINE
  8
_0-2_SUNPOU
  6
CONTINUOUS
 62
    7
 10
111.98505045629249
 20
254.97440192656358
 11
111.98505045629249
 21
265.85003474277209
  0
LINE
  8
_0-2_SUNPOU
  6
CONTINUOUS
 62
    7
 10
69.585050456292506
 20
251.77440192656669
 11
69.585050456292506
 21
265.85003474277209
  0
LINE
  8
_0-2_SUNPOU
  6
CONTINUOUS
 62
    7
 10
109.98505045629249
 20
264.85003474277209
 11
71.585050456292506
 21
264.85003474277209
  0
SOLID
  8
_0-2_SUNPOU
  6
CONTINUOUS
 62
    7
 10
109.98505045629249
 20
265.1833680761054
 11
109.98505045629249
 21
264.51670140943878
 12
111.98505045629249
 22
264.85003474277209
 13
111.98505045629249
 23
264.85003474277209
  0
SOLID
  8
_0-2_SUNPOU
  6
CONTINUOUS
 62
    7
 10
71.585050456292506
 20
265.1833680761054
 11
71.585050456292506
 21
264.51670140943878
 12
69.585050456292506
 22
264.85003474277209
 13
69.585050456292506
 23
264.85003474277209
  0
TEXT
  8
_0-2_SUNPOU
 62
    7
 10
87.785050456292509
 20
265.85003474277209
 40
3
 41
1
 50
0
  1
42.4
  0
POINT
  8
_0-7_DEFPOINTS
 62
    7
 10
111.98505045629249
 20
253.97440192656358
  0
POINT
  8
_0-7_DEFPOINTS
 62
    7
 10
69.585050456292506
 20
250.77440192656669
  0
POINT
  8
_0-7_DEFPOINTS
 62
    7
 10
69.585050456292506
 20
264.85003474277209
  0
ENDBLK
  0
BLOCK
  2
-033-_D33
 70
   64
 10
0
 20
0
 30
0
  0
LINE
  8
_0-2_SUNPOU
  6
CONTINUOUS
 62
    7
 10
111.98505045629249
 20
104.46280495456359
 11
111.98505045629249
 21
120.63497804687989
  0
LINE
  8
_0-2_SUNPOU
  6
CONTINUOUS
 62
    7
 10
69.58505045629252
 20
104.46280495456359
 11
69.58505045629252
 21
120.63497804687989
  0
LINE
  8
_0-2_SUNPOU
  6
CONTINUOUS
 62
    7
 10
109.98505045629249
 20
119.63497804687989
 11
71.58505045629252
 21
119.63497804687989
  0
SOLID
  8
_0-2_SUNPOU
  6
CONTINUOUS
 62
    7
 10
109.98505045629249
 20
119.96831138021319
 11
109.98505045629249
 21
119.30164471354659
 12
111.98505045629249
 22
119.63497804687989
 13
111.98505045629249
 23
119.63497804687989
  0
SOLID
  8
_0-2_SUNPOU
  6
CONTINUOUS
 62
    7
 10
71.58505045629252
 20
119.96831138021319
 11
71.58505045629252
 21
119.30164471354659
 12
69.58505045629252
 22
119.63497804687989
 13
69.58505045629252
 23
119.63497804687989
  0
TEXT
  8
_0-2_SUNPOU
 62
    7
 10
87.42722074927542
 20
120.63497804687989
 40
3
 41
1
 50
0
  1
42.4
  0
POINT
  8
_0-7_DEFPOINTS
 62
    7
 10
111.98505045629249
 20
103.46280495456359
  0
POINT
  8
_0-7_DEFPOINTS
 62
    7
 10
69.58505045629252
 20
103.46280495456359
  0
POINT
  8
_0-7_DEFPOINTS
 62
    7
 10
69.58505045629252
 20
119.63497804687989
  0
ENDBLK
  0
BLOCK
  2
-034-_D34
 70
   64
 10
0
 20
0
 30
0
  0
LINE
  8
_0-2_SUNPOU
  6
CONTINUOUS
 62
    7
 10
111.98505045629249
 20
104.46280495456359
 11
111.98505045629249
 21
113.20868305749679
  0
LINE
  8
_0-2_SUNPOU
  6
CONTINUOUS
 62
    7
 10
74.785050456292481
 20
101.5628049545605
 11
74.785050456292481
 21
113.20868305749679
  0
LINE
  8
_0-2_SUNPOU
  6
CONTINUOUS
 62
    7
 10
109.98505045629249
 20
112.20868305749679
 11
76.785050456292481
 21
112.20868305749679
  0
SOLID
  8
_0-2_SUNPOU
  6
CONTINUOUS
 62
    7
 10
109.98505045629249
 20
112.54201639083009
 11
109.98505045629249
 21
111.87534972416339
 12
111.98505045629249
 22
112.20868305749679
 13
111.98505045629249
 23
112.20868305749679
  0
SOLID
  8
_0-2_SUNPOU
  6
CONTINUOUS
 62
    7
 10
76.785050456292481
 20
112.54201639083009
 11
76.785050456292481
 21
111.87534972416339
 12
74.785050456292481
 22
112.20868305749679
 13
74.785050456292481
 23
112.20868305749679
  0
TEXT
  8
_0-2_SUNPOU
 62
    7
 10
87.90979142278843
 20
113.20868305749679
 40
3
 41
1
 50
0
  1
37.2
  0
POINT
  8
_0-7_DEFPOINTS
 62
    7
 10
111.98505045629249
 20
103.46280495456359
  0
POINT
  8
_0-7_DEFPOINTS
 62
    7
 10
74.785050456292481
 20
100.5628049545605
  0
POINT
  8
_0-7_DEFPOINTS
 62
    7
 10
74.785050456292481
 20
112.20868305749679
  0
ENDBLK
  0
BLOCK
  2
-035-_D35
 70
   64
 10
0
 20
0
 30
0
  0
LINE
  8
_0-2_SUNPOU
  6
CONTINUOUS
 62
    7
 10
371.01754324413417
 20
188.26898344897179
 11
371.01754324413417
 21
191.9598226139837
  0
LINE
  8
_0-2_SUNPOU
  6
CONTINUOUS
 62
    7
 10
381.01754324413417
 20
190.0859463727298
 11
381.01754324413417
 21
191.9598226139837
  0
LINE
  8
_0-2_SUNPOU
  6
CONTINUOUS
 62
    7
 10
379.01754324413417
 20
190.95982261398359
 11
373.01754324413417
 21
190.95982261398359
  0
LINE
  8
_0-2_SUNPOU
  6
CONTINUOUS
 62
    7
 10
371.01754324413417
 20
190.95982261398359
 11
363.51754324413428
 21
190.95982261398359
  0
SOLID
  8
_0-2_SUNPOU
  6
CONTINUOUS
 62
    7
 10
379.01754324413417
 20
191.29315594731698
 11
379.01754324413417
 21
190.6264892806503
 12
381.01754324413417
 22
190.95982261398359
 13
381.01754324413417
 23
190.95982261398359
  0
SOLID
  8
_0-2_SUNPOU
  6
CONTINUOUS
 62
    7
 10
373.01754324413417
 20
191.29315594731698
 11
373.01754324413417
 21
190.6264892806503
 12
371.01754324413417
 22
190.95982261398359
 13
371.01754324413417
 23
190.95982261398359
  0
TEXT
  8
_0-2_SUNPOU
 62
    7
 10
364.76754324413417
 20
191.9598226139837
 40
3
 41
1
 50
0
  1
10
  0
POINT
  8
_0-7_DEFPOINTS
 62
    7
 10
371.01754324413417
 20
187.26898344897179
  0
POINT
  8
_0-7_DEFPOINTS
 62
    7
 10
381.01754324413417
 20
189.0859463727298
  0
POINT
  8
_0-7_DEFPOINTS
 62
    7
 10
381.01754324413417
 20
190.95982261398359
  0
ENDBLK
  0
BLOCK
  2
-036-_D36
 70
   64
 10
0
 20
0
 30
0
  0
LINE
  8
_0-2_SUNPOU
  6
CONTINUOUS
 62
    7
 10
370.01754324413417
 20
151.36898344897178
 11
370.01754324413417
 21
137.71872100970671
  0
LINE
  8
_0-2_SUNPOU
  6
CONTINUOUS
 62
    7
 10
385.01754324413428
 20
181.6689834489718
 11
385.01754324413428
 21
137.71872100970671
  0
LINE
  8
_0-2_SUNPOU
  6
CONTINUOUS
 62
    7
 10
372.01754324413417
 20
138.71872100970671
 11
383.01754324413428
 21
138.71872100970671
  0
SOLID
  8
_0-2_SUNPOU
  6
CONTINUOUS
 62
    7
 10
372.01754324413417
 20
139.05205434303999
 11
372.01754324413417
 21
138.38538767637331
 12
370.01754324413417
 22
138.71872100970671
 13
370.01754324413417
 23
138.71872100970671
  0
SOLID
  8
_0-2_SUNPOU
  6
CONTINUOUS
 62
    7
 10
383.01754324413428
 20
139.05205434303999
 11
383.01754324413428
 21
138.38538767637331
 12
385.01754324413428
 22
138.71872100970671
 13
385.01754324413428
 23
138.71872100970671
  0
TEXT
  8
_0-2_SUNPOU
 62
    7
 10
376.01754324413417
 20
139.71872100970671
 40
3
 41
1
 50
0
  1
15
  0
POINT
  8
_0-7_DEFPOINTS
 62
    7
 10
370.01754324413417
 20
152.36898344897178
  0
POINT
  8
_0-7_DEFPOINTS
 62
    7
 10
385.01754324413428
 20
182.6689834489718
  0
POINT
  8
_0-7_DEFPOINTS
 62
    7
 10
385.01754324413428
 20
138.71872100970671
  0
ENDBLK
  0
BLOCK
  2
-037-_D37
 70
   64
 10
0
 20
0
 30
0
  0
LINE
  8
_0-2_SUNPOU
  6
CONTINUOUS
 62
    7
 10
246.64511564156529
 20
55.875559216305589
 11
256.74147795954729
 21
55.875559216305589
  0
LINE
  8
_0-2_SUNPOU
  6
CONTINUOUS
 62
    7
 10
239.7007266875255
 20
64.875559216305575
 11
256.74147795954729
 21
64.875559216305575
  0
LINE
  8
_0-2_SUNPOU
  6
CONTINUOUS
 62
    7
 10
256.56147795954728
 20
57.875559216305589
 11
256.56147795954728
 21
62.875559216305589
  0
SOLID
  8
_0-2_SUNPOU
  6
CONTINUOUS
 62
    7
 10
256.22814462621397
 20
57.875559216305589
 11
256.8948112928806
 21
57.875559216305589
 12
256.56147795954728
 22
55.875559216305589
 13
256.56147795954728
 23
55.875559216305589
  0
SOLID
  8
_0-2_SUNPOU
  6
CONTINUOUS
 62
    7
 10
256.22814462621397
 20
62.875559216305589
 11
256.8948112928806
 21
62.875559216305589
 12
256.56147795954728
 22
64.875559216305575
 13
256.56147795954728
 23
64.875559216305575
  0
TEXT
  8
_0-2_SUNPOU
 62
    7
 10
255.06147795954728
 20
59.575559216305634
 40
3.2000000000000001
 41
1
 50
90
  1
9
  0
POINT
  8
_0-7_DEFPOINTS
 62
    7
 10
246.58261564156529
 20
55.875559216305589
  0
POINT
  8
_0-7_DEFPOINTS
 62
    7
 10
239.63822668752538
 20
64.875559216305575
  0
POINT
  8
_0-7_DEFPOINTS
 62
    7
 10
256.56147795954728
 20
64.875559216305575
  0
ENDBLK
  0
BLOCK
  2
-038-_D38
 70
   64
 10
0
 20
0
 30
0
  0
LINE
  8
_0-2_SUNPOU
  6
CONTINUOUS
 62
    7
 10
246.64511564156529
 20
75.375559216305575
 11
264.84583006563292
 21
75.375559216305575
  0
LINE
  8
_0-2_SUNPOU
  6
CONTINUOUS
 62
    7
 10
246.64511564156529
 20
55.875559216305589
 11
264.84583006563292
 21
55.875559216305589
  0
LINE
  8
_0-2_SUNPOU
  6
CONTINUOUS
 62
    7
 10
264.66583006563291
 20
73.375559216305575
 11
264.66583006563291
 21
57.875559216305589
  0
SOLID
  8
_0-2_SUNPOU
  6
CONTINUOUS
 62
    7
 10
264.3324967322996
 20
73.375559216305575
 11
264.99916339896617
 21
73.375559216305575
 12
264.66583006563291
 22
75.375559216305575
 13
264.66583006563291
 23
75.375559216305575
  0
SOLID
  8
_0-2_SUNPOU
  6
CONTINUOUS
 62
    7
 10
264.3324967322996
 20
57.875559216305589
 11
264.99916339896617
 21
57.875559216305589
 12
264.66583006563291
 22
55.875559216305589
 13
264.66583006563291
 23
55.875559216305589
  0
TEXT
  8
_0-2_SUNPOU
 62
    7
 10
263.1658300656328
 20
62.425559216305629
 40
3.2000000000000001
 41
1
 50
90
  1
19.5
  0
POINT
  8
_0-7_DEFPOINTS
 62
    7
 10
246.58261564156529
 20
75.375559216305575
  0
POINT
  8
_0-7_DEFPOINTS
 62
    7
 10
246.58261564156529
 20
55.875559216305589
  0
POINT
  8
_0-7_DEFPOINTS
 62
    7
 10
264.66583006563291
 20
55.875559216305589
  0
ENDBLK
  0
BLOCK
  2
-039-_D39
 70
   64
 10
0
 20
0
 30
0
  0
LINE
  8
_0-2_SUNPOU
  6
CONTINUOUS
 62
    7
 10
233.58261564156509
 20
76.699077225220378
 11
233.58261564156509
 21
85.948246653060905
  0
LINE
  8
_0-2_SUNPOU
  6
CONTINUOUS
 62
    7
 10
209.58261564156529
 20
76.699077225220378
 11
209.58261564156529
 21
85.948246653060905
  0
LINE
  8
_0-2_SUNPOU
  6
CONTINUOUS
 62
    7
 10
231.58261564156509
 20
85.768246653060884
 11
211.58261564156529
 21
85.768246653060884
  0
SOLID
  8
_0-2_SUNPOU
  6
CONTINUOUS
 62
    7
 10
231.58261564156509
 20
86.101579986394199
 11
231.58261564156509
 21
85.434913319727556
 12
233.58261564156509
 22
85.768246653060884
 13
233.58261564156509
 23
85.768246653060884
  0
SOLID
  8
_0-2_SUNPOU
  6
CONTINUOUS
 62
    7
 10
211.58261564156529
 20
86.101579986394199
 11
211.58261564156529
 21
85.434913319727556
 12
209.58261564156529
 22
85.768246653060884
 13
209.58261564156529
 23
85.768246653060884
  0
TEXT
  8
_0-2_SUNPOU
 62
    7
 10
219.98261564156521
 20
87.268246653060884
 40
3.2000000000000001
 41
1
 50
0
  1
24
  0
POINT
  8
_0-7_DEFPOINTS
 62
    7
 10
233.58261564156509
 20
76.636577225220378
  0
POINT
  8
_0-7_DEFPOINTS
 62
    7
 10
209.58261564156529
 20
76.636577225220378
  0
POINT
  8
_0-7_DEFPOINTS
 62
    7
 10
209.58261564156529
 20
85.768246653060884
  0
ENDBLK
  0
BLOCK
  2
-040-_D40
 70
   64
 10
0
 20
0
 30
0
  0
LINE
  8
_0-2_SUNPOU
  6
CONTINUOUS
 62
    7
 10
209.58261564156529
 20
76.699077225220378
 11
209.58261564156529
 21
85.948246653060635
  0
LINE
  8
_0-2_SUNPOU
  6
CONTINUOUS
 62
    7
 10
185.58261564156529
 20
76.699077225220378
 11
185.58261564156529
 21
85.948246653060635
  0
LINE
  8
_0-2_SUNPOU
  6
CONTINUOUS
 62
    7
 10
207.58261564156529
 20
85.768246653060643
 11
187.58261564156529
 21
85.768246653060643
  0
SOLID
  8
_0-2_SUNPOU
  6
CONTINUOUS
 62
    7
 10
207.58261564156529
 20
86.101579986393971
 11
207.58261564156529
 21
85.434913319727314
 12
209.58261564156529
 22
85.768246653060643
 13
209.58261564156529
 23
85.768246653060643
  0
SOLID
  8
_0-2_SUNPOU
  6
CONTINUOUS
 62
    7
 10
187.58261564156529
 20
86.101579986393971
 11
187.58261564156529
 21
85.434913319727314
 12
185.58261564156529
 22
85.768246653060643
 13
185.58261564156529
 23
85.768246653060643
  0
TEXT
  8
_0-2_SUNPOU
 62
    7
 10
195.9826156415653
 20
87.268246653060629
 40
3.2000000000000001
 41
1
 50
0
  1
24
  0
POINT
  8
_0-7_DEFPOINTS
 62
    7
 10
209.58261564156529
 20
76.636577225220378
  0
POINT
  8
_0-7_DEFPOINTS
 62
    7
 10
185.58261564156529
 20
76.636577225220378
  0
POINT
  8
_0-7_DEFPOINTS
 62
    7
 10
185.58261564156529
 20
85.768246653060643
  0
ENDBLK
  0
BLOCK
  2
-041-_D41
 70
   64
 10
0
 20
0
 30
0
  0
LINE
  8
_0-2_SUNPOU
  6
CONTINUOUS
 62
    7
 10
185.58261564156529
 20
76.699077225220378
 11
185.58261564156529
 21
85.948246653060635
  0
LINE
  8
_0-2_SUNPOU
  6
CONTINUOUS
 62
    7
 10
161.58261564156521
 20
76.699077225220378
 11
161.58261564156521
 21
85.948246653060635
  0
LINE
  8
_0-2_SUNPOU
  6
CONTINUOUS
 62
    7
 10
183.58261564156529
 20
85.768246653060643
 11
163.58261564156521
 21
85.768246653060643
  0
SOLID
  8
_0-2_SUNPOU
  6
CONTINUOUS
 62
    7
 10
183.58261564156529
 20
86.101579986393971
 11
183.58261564156529
 21
85.434913319727314
 12
185.58261564156529
 22
85.768246653060643
 13
185.58261564156529
 23
85.768246653060643
  0
SOLID
  8
_0-2_SUNPOU
  6
CONTINUOUS
 62
    7
 10
163.58261564156521
 20
86.101579986393971
 11
163.58261564156521
 21
85.434913319727314
 12
161.58261564156521
 22
85.768246653060643
 13
161.58261564156521
 23
85.768246653060643
  0
TEXT
  8
_0-2_SUNPOU
 62
    7
 10
171.9826156415653
 20
87.268246653060629
 40
3.2000000000000001
 41
1
 50
0
  1
24
  0
POINT
  8
_0-7_DEFPOINTS
 62
    7
 10
185.58261564156529
 20
76.636577225220378
  0
POINT
  8
_0-7_DEFPOINTS
 62
    7
 10
161.58261564156521
 20
76.636577225220378
  0
POINT
  8
_0-7_DEFPOINTS
 62
    7
 10
161.58261564156521
 20
85.768246653060643
  0
ENDBLK
  0
BLOCK
  2
-042-_D42
 70
   64
 10
0
 20
0
 30
0
  0
LINE
  8
_0-2_SUNPOU
  6
CONTINUOUS
 62
    7
 10
246.58261564156529
 20
55.813059216305582
 11
246.58261564156529
 21
40.563861195291572
  0
LINE
  8
_0-2_SUNPOU
  6
CONTINUOUS
 62
    7
 10
148.58261564156529
 20
55.813059216305582
 11
148.58261564156529
 21
40.563861195291572
  0
LINE
  8
_0-2_SUNPOU
  6
CONTINUOUS
 62
    7
 10
244.58261564156529
 20
40.743861195291572
 11
150.58261564156521
 21
40.743861195291572
  0
SOLID
  8
_0-2_SUNPOU
  6
CONTINUOUS
 62
    7
 10
244.58261564156529
 20
41.0771945286249
 11
244.58261564156529
 21
40.410527861958229
 12
246.58261564156529
 22
40.743861195291572
 13
246.58261564156529
 23
40.743861195291572
  0
SOLID
  8
_0-2_SUNPOU
  6
CONTINUOUS
 62
    7
 10
150.58261564156521
 20
41.0771945286249
 11
150.58261564156521
 21
40.410527861958229
 12
148.58261564156529
 22
40.743861195291572
 13
148.58261564156529
 23
40.743861195291572
  0
TEXT
  8
_0-2_SUNPOU
 62
    7
 10
195.9826156415653
 20
42.243861195291572
 40
3.2000000000000001
 41
1
 50
0
  1
98
  0
POINT
  8
_0-7_DEFPOINTS
 62
    7
 10
246.58261564156529
 20
55.875559216305589
  0
POINT
  8
_0-7_DEFPOINTS
 62
    7
 10
148.58261564156529
 20
55.875559216305589
  0
POINT
  8
_0-7_DEFPOINTS
 62
    7
 10
148.58261564156529
 20
40.743861195291572
  0
ENDBLK
  0
BLOCK
  2
-043-_D43
 70
   64
 10
0
 20
0
 30
0
  0
LINE
  8
_0-2_SUNPOU
  6
CONTINUOUS
 62
    7
 10
165.58261564156549
 20
75.438059216305575
 11
165.58261564156549
 21
80.004321267884847
  0
LINE
  8
_0-2_SUNPOU
  6
CONTINUOUS
 62
    7
 10
157.58261564156541
 20
75.438059216305575
 11
157.58261564156541
 21
80.004321267884847
  0
LINE
  8
_0-2_SUNPOU
  6
CONTINUOUS
 62
    7
 10
167.58261564156549
 20
79.82432126788484
 11
169.58261564156549
 21
79.82432126788484
  0
LINE
  8
_0-2_SUNPOU
  6
CONTINUOUS
 62
    7
 10
155.58261564156549
 20
79.82432126788484
 11
153.58261564156541
 21
79.82432126788484
  0
TEXT
  8
_0-2_SUNPOU
 62
    7
 10
157.76198037078088
 20
81.048782661104866
 40
3.2000000000000001
 41
1
 50
0
  1
8
  0
SOLID
  8
_0-2_SUNPOU
  6
CONTINUOUS
 62
    7
 10
163.58261564156549
 20
80.157654601218183
 11
163.58261564156549
 21
79.490987934551512
 12
165.58261564156549
 22
79.82432126788484
 13
165.58261564156549
 23
79.82432126788484
  0
LINE
  8
_0-2_SUNPOU
  6
CONTINUOUS
 62
    7
 10
163.58261564156549
 20
79.82432126788484
 11
161.58261564156549
 21
79.82432126788484
  0
LINE
  8
_0-2_SUNPOU
  6
CONTINUOUS
 62
    7
 10
165.58261564156549
 20
79.82432126788484
 11
167.58261564156549
 21
79.82432126788484
  0
SOLID
  8
_0-2_SUNPOU
  6
CONTINUOUS
 62
    7
 10
159.58261564156541
 20
80.157654601218183
 11
159.58261564156541
 21
79.490987934551512
 12
157.58261564156541
 22
79.82432126788484
 13
157.58261564156541
 23
79.82432126788484
  0
LINE
  8
_0-2_SUNPOU
  6
CONTINUOUS
 62
    7
 10
159.58261564156541
 20
79.82432126788484
 11
161.58261564156541
 21
79.82432126788484
  0
LINE
  8
_0-2_SUNPOU
  6
CONTINUOUS
 62
    7
 10
157.58261564156541
 20
79.82432126788484
 11
155.58261564156549
 21
79.82432126788484
  0
POINT
  8
_0-7_DEFPOINTS
 62
    7
 10
165.58261564156549
 20
75.375559216305575
  0
POINT
  8
_0-7_DEFPOINTS
 62
    7
 10
157.58261564156541
 20
75.375559216305575
  0
POINT
  8
_0-7_DEFPOINTS
 62
    7
 10
157.58261564156541
 20
79.82432126788484
  0
ENDBLK
  0
BLOCK
  2
-044-_D44
 70
   64
 10
0
 20
0
 30
0
  0
LINE
  8
_0-2_SUNPOU
  6
CONTINUOUS
 62
    7
 10
148.7160329962376
 20
55.844021344422678
 11
147.32558081185828
 21
54.40643909531326
  0
TEXT
  8
_0-2_SUNPOU
 62
    7
 10
145.5950478281878
 20
55.219815459886376
 40
3.2000000000000001
 41
1
 50
45.954763426813499
  1
R5
  0
SOLID
  8
_0-2_SUNPOU
  6
CONTINUOUS
 62
    7
 10
148.4764359547195
 20
56.075763375152568
 11
148.95563003775589
 21
55.612279313692766
 12
150.10648518061711
 22
57.281603593532096
 13
150.10648518061711
 23
57.281603593532096
  0
LINE
  8
_0-2_SUNPOU
  6
CONTINUOUS
 62
    7
 10
152.58261564156541
 20
60.87555921630539
 11
154.58261564156541
 21
60.875559216305383
  0
LINE
  8
_0-2_SUNPOU
  6
CONTINUOUS
 62
    7
 10
153.58261564156541
 20
59.875559216305369
 11
153.58261564156541
 21
61.875559216305383
  0
POINT
  8
_0-7_DEFPOINTS
 62
    7
 10
150.10648518061711
 20
57.281603593532096
  0
POINT
  8
_0-7_DEFPOINTS
 62
    7
 10
153.58261564156529
 20
60.875559216305383
  0
ENDBLK
  0
BLOCK
  2
-045-_D45
 70
   64
 10
0
 20
0
 30
0
  0
LINE
  8
_0-2_SUNPOU
  6
CONTINUOUS
 62
    7
 10
262.51657105391291
 20
235.97440192556359
 11
275.30397344891292
 21
235.97440192556359
  0
LINE
  8
_0-2_SUNPOU
  6
CONTINUOUS
 62
    7
 10
255.72132990091279
 20
249.5744019255635
 11
275.30397344891292
 21
249.5744019255635
  0
LINE
  8
_0-2_SUNPOU
  6
CONTINUOUS
 62
    7
 10
275.12397344891292
 20
237.97440192556359
 11
275.12397344891292
 21
247.5744019255635
  0
SOLID
  8
_0-2_SUNPOU
  6
CONTINUOUS
 62
    7
 10
274.7906401155796
 20
237.97440192556359
 11
275.45730678224617
 21
237.97440192556359
 12
275.12397344891292
 22
235.97440192556359
 13
275.12397344891292
 23
235.97440192556359
  0
SOLID
  8
_0-2_SUNPOU
  6
CONTINUOUS
 62
    7
 10
274.7906401155796
 20
247.5744019255635
 11
275.45730678224617
 21
247.5744019255635
 12
275.12397344891292
 22
249.5744019255635
 13
275.12397344891292
 23
249.5744019255635
  0
TEXT
  8
_0-2_SUNPOU
 62
    7
 10
274.1239734489128
 20
239.7744019255636
 40
3
 41
1
 50
90
  1
13.6
  0
POINT
  8
_0-7_DEFPOINTS
 62
    7
 10
260.51657105391291
 20
235.97440192556359
  0
POINT
  8
_0-7_DEFPOINTS
 62
    7
 10
253.72132990091279
 20
249.5744019255635
  0
POINT
  8
_0-7_DEFPOINTS
 62
    7
 10
275.12397344891292
 20
249.5744019255635
  0
ENDBLK
  0
BLOCK
  2
-046-_D46
 70
   64
 10
0
 20
0
 30
0
  0
LINE
  8
_0-2_SUNPOU
  6
CONTINUOUS
 62
    7
 10
166.29689065604299
 20
61.341455920934826
 11
167.82935429767118
 21
60.056327449890929
  0
TEXT
  8
_0-2_SUNPOU
 62
    7
 10
167.98160872619325
 20
61.249517237293069
 40
3
 41
1
 50
-39.983294922601508
  1
R3.5
  0
SOLID
  8
_0-2_SUNPOU
  6
CONTINUOUS
 62
    7
 10
166.51107873455029
 20
61.596866527872869
 11
166.08270257753571
 21
61.086045313996791
 12
164.76442701441479
 22
62.626584391978738
 13
164.76442701441479
 23
62.626584391978738
  0
LINE
  8
_0-2_SUNPOU
  6
CONTINUOUS
 62
    7
 10
161.99261564156549
 20
64.875559216305603
 11
162.17261564156549
 21
64.875559216305575
  0
LINE
  8
_0-2_SUNPOU
  6
CONTINUOUS
 62
    7
 10
162.08261564156549
 20
64.785559216305586
 11
162.08261564156549
 21
64.965559216305592
  0
POINT
  8
_0-7_DEFPOINTS
 62
    7
 10
164.76442701441479
 20
62.626584391978738
  0
POINT
  8
_0-7_DEFPOINTS
 62
    7
 10
162.08261564156549
 20
64.875559216305575
  0
ENDBLK
  0
ENDSEC
  0
SECTION
  2
ENTITIES
  0
INSERT
  2
-002-WAKU
  8
_0-1_ZUWAKU
 10
86.999992770158996
 20
61.499994703355213
 41
1
 42
1
 50
0
  0
TEXT
  8
_0-3_TEXT
 62
    7
 10
417.54165943682556
 20
75.374994703355241
 40
3.25
 41
1
 50
0
  1
点検口用カクシヒンジ
  0
TEXT
  8
_0-3_TEXT
 62
    7
 10
433.84165943682569
 20
83.874994703355241
 40
3.25
 41
1
 50
0
  1
2449N-4、2449-SP
  0
TEXT
  8
_0-3_TEXT
 62
    7
 10
347.04165943682568
 20
75.374994703355241
 40
3.25
 41
1
 50
0
  1
図示による
  0
TEXT
  8
_0-3_TEXT
 62
    7
 10
347.04165943682568
 20
83.874994703355241
 40
3.25
 41
1
 50
0
  1
図示による
  0
TEXT
  8
_0-3_TEXT
 62
    7
 10
302.424992770159
 20
83.874994703355241
 40
3.25
 41
1
 50
0
  1
1：1
  0
TEXT
  8
_0-3_TEXT
 62
    7
 10
436.65671329881757
 20
340.96466481601669
 40
3.25
 41
1
 50
0
  1
File_No.
  0
LINE
  8
_0-7_DEFPOINTS
  6
CONTINUOUS
 62
    7
 10
86.999992770158996
 20
358.49999470335546
 11
506.99999277015876
 21
358.49999470335546
  0
LINE
  8
_0-7_DEFPOINTS
  6
CONTINUOUS
 62
    7
 10
506.99999277015876
 20
358.49999470335546
 11
506.99999277015899
 21
61.499994703355383
  0
LINE
  8
_0-7_DEFPOINTS
  6
CONTINUOUS
 62
    7
 10
506.99999277015899
 20
61.499994703355383
 11
86.999992770158996
 21
61.499994703355213
  0
LINE
  8
_0-7_DEFPOINTS
  6
CONTINUOUS
 62
    7
 10
86.999992770158996
 20
61.499994703355213
 11
86.999992770158996
 21
358.49999470335546
  0
INSERT
  2
-003-_D3
  8
_0-2_SUNPOU
 10
86.999992770158996
 20
61.499994703355213
 41
1
 42
1
 50
0
  0
INSERT
  2
-004-_D4
  8
_0-2_SUNPOU
 10
86.999992770158996
 20
61.499994703355213
 41
1
 42
1
 50
0
  0
LINE
  8
_0-9_1
  6
CONTINUOUS
 62
    7
 10
207.58504322645148
 20
134.96279965791879
 11
207.58504322645148
 21
164.96279965791882
  0
LINE
  8
_0-9_1
  6
CONTINUOUS
 62
    7
 10
156.58504322645151
 20
134.96279965791879
 11
156.58504322645151
 21
164.96279965791882
  0
LINE
  8
_0-9_1
  6
CONTINUOUS
 62
    7
 10
207.58504322645148
 20
164.96279965791882
 11
156.58504322645151
 21
164.96279965791882
  0
LINE
  8
_0-9_1
  6
CONTINUOUS
 62
    7
 10
204.3850432264515
 20
134.96279965791879
 11
204.3850432264515
 21
164.96279965791882
  0
LINE
  8
_0-9_1
  6
HIDDEN
 62
    2
 10
159.7850432264515
 20
164.96279965791882
 11
159.78504322645147
 21
134.96279965791879
  0
CIRCLE
  8
_0-9_1
  6
CONTINUOUS
 62
    7
 10
198.98504322645149
 20
157.96279965791882
 40
3.1
  0
LINE
  8
_0-5_CENTER
  6
CENTER
 62
    6
 10
198.98504322645149
 20
146.77559850391878
 11
198.98504322645149
 21
171.87905925191881
  0
LINE
  8
_0-5_CENTER
  6
CENTER
 62
    6
 10
216.93298942245149
 20
157.96279965791882
 11
189.01179328545151
 21
157.96279965791882
  0
LINE
  8
_0-9_1
  6
CONTINUOUS
 62
    7
 10
198.18504322645151
 20
98.262799657918804
 11
194.98504322645149
 21
98.262799657918804
  0
LINE
  8
_0-9_1
  6
CONTINUOUS
 62
    7
 10
161.7850432264515
 20
118.46279965791879
 11
161.7850432264515
 21
134.96279965791876
  0
LINE
  8
_0-9_1
  6
CONTINUOUS
 62
    7
 10
198.18504322645151
 20
115.2627996579188
 11
198.18504322645151
 21
98.262799657918804
  0
LINE
  8
_0-9_1
  6
HIDDEN
 62
    2
 10
198.98504322645149
 20
161.06279965791881
 11
164.98504322645149
 21
161.06279965791881
  0
LINE
  8
_0-9_1
  6
HIDDEN
 62
    2
 10
164.98504322645149
 20
161.06279965791881
 11
164.98504322645149
 21
134.96279965791879
  0
LINE
  8
_0-9_1
  6
CONTINUOUS
 62
    7
 10
164.98504322645149
 20
118.46279965791879
 11
194.98504322645149
 21
118.46279965791879
  0
LINE
  8
_0-9_1
  6
HIDDEN
 62
    2
 10
198.98504322645149
 20
164.26279965791883
 11
164.98504322645149
 21
164.26279965791883
  0
LINE
  8
_0-9_1
  6
CONTINUOUS
 62
    7
 10
194.98504322645149
 20
115.2627996579188
 11
164.98504322645149
 21
115.2627996579188
  0
LINE
  8
_0-9_1
  6
CONTINUOUS
 62
    7
 10
194.98504322645149
 20
115.2627996579188
 11
194.98504322645149
 21
98.262799657918804
  0
LINE
  8
_0-9_1
  6
HIDDEN
 62
    2
 10
161.7850432264515
 20
134.96279965791879
 11
161.7850432264515
 21
161.06279965791881
  0
INSERT
  2
-005-_D5
  8
_0-2_SUNPOU
 10
86.999992770158996
 20
61.499994703355213
 41
1
 42
1
 50
0
  0
LINE
  8
_0-9_1
  6
CONTINUOUS
 62
    7
 10
164.98504322645149
 20
134.96279965791876
 11
164.98504322645149
 21
118.46279965791879
  0
ARC
  8
_0-9_1
  6
HIDDEN
 62
    2
 10
198.98504322645149
 20
157.96279965791882
 40
6.299999999999998
 50
150.5237006156959
 51
90.000000000055365
  0
LINE
  8
_0-9_1
  6
HIDDEN
 62
    2
 10
193.50051954645149
 20
161.06279965791881
 11
196.2720361284515
 21
159.46266381391879
  0
ARC
  8
_0-9_1
  6
HIDDEN
 62
    2
 10
164.98504322645149
 20
161.06279965791881
 40
3.2000000000000001
 50
90.000000000053731
 51
180.0000000000553
  0
ARC
  8
_0-9_1
  6
CONTINUOUS
 62
    7
 10
164.98504322645149
 20
118.46279965791879
 40
3.2000000000000001
 50
180.0000000000553
 51
270.00000000005371
  0
ARC
  8
_0-9_1
  6
CONTINUOUS
 62
    7
 10
194.98504322645149
 20
115.2627996579188
 40
3.2000000000000001
 50
0.0000000000553671
 51
90.000000000053731
  0
LINE
  8
_0-5_CENTER
  6
CENTER
 62
    6
 10
198.98504322645149
 20
329.21154516191882
 11
198.98504322645149
 21
304.10808441391884
  0
LINE
  8
_0-5_CENTER
  6
CENTER
 62
    6
 10
198.98504322645149
 20
222.10739118691881
 11
198.98504322645149
 21
197.00393043891881
  0
LINE
  8
_0-9_1
  6
CONTINUOUS
 62
    7
 10
207.58504322645148
 20
331.27439662991866
 11
207.58504322645148
 21
315.47439662991882
  0
LINE
  8
_0-9_1
  6
CONTINUOUS
 62
    7
 10
207.58504322645148
 20
191.27439662991881
 11
204.3850432264515
 21
191.27439662991881
  0
LINE
  8
_0-9_1
  6
CONTINUOUS
 62
    7
 10
156.58504322645151
 20
210.27439662991872
 11
156.58504322645151
 21
312.27439662991872
  0
LINE
  8
_0-9_1
  6
CONTINUOUS
 62
    7
 10
204.3850432264515
 20
331.27439662991866
 11
207.58504322645148
 21
331.27439662991866
  0
LINE
  8
_0-9_1
  6
CONTINUOUS
 62
    7
 10
204.3850432264515
 20
331.27439662991866
 11
204.3850432264515
 21
315.47439662991882
  0
LINE
  8
_0-9_1
  6
CONTINUOUS
 62
    7
 10
207.58504322645148
 20
207.0743966299187
 11
207.58504322645148
 21
191.27439662991881
  0
LINE
  8
_0-9_1
  6
CONTINUOUS
 62
    7
 10
204.3850432264515
 20
312.27439662991872
 11
159.7850432264515
 21
312.27439662991872
  0
LINE
  8
_0-9_1
  6
CONTINUOUS
 62
    7
 10
159.7850432264515
 20
312.27439662991872
 11
159.7850432264515
 21
210.27439662991872
  0
LINE
  8
_0-9_1
  6
CONTINUOUS
 62
    7
 10
159.7850432264515
 20
210.27439662991872
 11
204.3850432264515
 21
210.27439662991872
  0
LINE
  8
_0-9_1
  6
CONTINUOUS
 62
    7
 10
204.3850432264515
 20
315.47439662991882
 11
159.7850432264515
 21
315.47439662991882
  0
LINE
  8
_0-9_1
  6
CONTINUOUS
 62
    7
 10
204.3850432264515
 20
207.0743966299187
 11
159.7850432264515
 21
207.0743966299187
  0
LINE
  8
_0-9_1
  6
CONTINUOUS
 62
    7
 10
204.3850432264515
 20
207.0743966299187
 11
204.3850432264515
 21
191.27439662991881
  0
ARC
  8
_0-9_1
  6
CONTINUOUS
 62
    7
 10
159.7850432264515
 20
312.27439662991872
 40
3.2000000000000001
 50
89.999999999946254
 51
179.99999999994457
  0
ARC
  8
_0-9_1
  6
CONTINUOUS
 62
    7
 10
159.7850432264515
 20
210.27439662991872
 40
3.2000000000000001
 50
179.9999999999446
 51
269.99999999994628
  0
ARC
  8
_0-9_1
  6
CONTINUOUS
 62
    7
 10
204.3850432264515
 20
207.0743966299187
 40
3.2000000000000001
 50
359.99999999994457
 51
89.999999999946282
  0
ARC
  8
_0-9_1
  6
CONTINUOUS
 62
    7
 10
204.3850432264515
 20
315.47439662991882
 40
3.2000000000000001
 50
269.99999999994628
 51
359.99999999994457
  0
INSERT
  2
-006-_D6
  8
_0-2_SUNPOU
 10
86.999992770158996
 20
61.499994703355213
 41
1
 42
1
 50
0
  0
INSERT
  2
-007-_D7
  8
_0-2_SUNPOU
 10
86.999992770158996
 20
61.499994703355213
 41
1
 42
1
 50
0
  0
INSERT
  2
-008-_D8
  8
_0-2_SUNPOU
 10
86.999992770158996
 20
61.499994703355213
 41
1
 42
1
 50
0
  0
INSERT
  2
-009-_D9
  8
_0-2_SUNPOU
 10
86.999992770158996
 20
61.499994703355213
 41
1
 42
1
 50
0
  0
LINE
  8
_0-9_1
  6
CONTINUOUS
 62
    7
 10
205.28504322645147
 20
311.47439662991882
 11
161.7850432264515
 21
311.47439662991882
  0
LINE
  8
_0-9_1
  6
CONTINUOUS
 62
    7
 10
205.28504322645147
 20
311.47439662991882
 11
205.28504322645147
 21
211.4743966299188
  0
LINE
  8
_0-9_1
  6
CONTINUOUS
 62
    7
 10
161.7850432264515
 20
311.47439662991882
 11
161.7850432264515
 21
211.4743966299188
  0
LINE
  8
_0-9_1
  6
CONTINUOUS
 62
    7
 10
205.28504322645147
 20
211.4743966299188
 11
161.7850432264515
 21
211.4743966299188
  0
CIRCLE
  8
_0-9_1
  6
CONTINUOUS
 62
    7
 10
286.0213226710718
 20
199.27439662991881
 40
2
  0
LINE
  8
_0-9_1
  6
HIDDEN
 62
    2
 10
192.68504322645151
 20
311.47439662991882
 11
192.68504322645151
 21
211.4743966299188
  0
LINE
  8
_0-9_1
  6
CONTINUOUS
 62
    7
 10
309.02132267107185
 20
196.27439662991881
 11
309.02132267107185
 21
211.47439662891872
  0
LINE
  8
_0-9_1
  6
HIDDEN
 62
    2
 10
164.98504322645149
 20
211.4743966299188
 11
164.98504322645149
 21
311.47439662991882
  0
LINE
  8
_0-9_1
  6
CONTINUOUS
 62
    7
 10
304.02132267107185
 20
191.27439662991881
 11
284.0213226710718
 21
191.27439662991881
  0
LINE
  8
_0-9_1
  6
CONTINUOUS
 62
    7
 10
309.02132267107185
 20
210.27439662991872
 11
279.0213226710718
 21
210.27439662991872
  0
LINE
  8
_0-9_1
  6
CONTINUOUS
 62
    7
 10
279.0213226710718
 20
196.27439662991881
 11
279.0213226710718
 21
326.27439662991866
  0
LINE
  8
_0-9_1
  6
CONTINUOUS
 62
    7
 10
304.02132267107185
 20
331.27439662991866
 11
284.0213226710718
 21
331.27439662991866
  0
CIRCLE
  8
_0-9_1
  6
CONTINUOUS
 62
    7
 10
302.0213226710718
 20
199.27439662991881
 40
2
  0
CIRCLE
  8
_0-9_1
  6
CONTINUOUS
 62
    7
 10
286.0213226710718
 20
323.27439662991866
 40
2
  0
CIRCLE
  8
_0-9_1
  6
CONTINUOUS
 62
    7
 10
302.0213226710718
 20
323.27439662991866
 40
2
  0
LINE
  8
_0-9_1
  6
CONTINUOUS
 62
    7
 10
309.02132267107185
 20
312.27439662991872
 11
279.0213226710718
 21
312.27439662991872
  0
INSERT
  2
-010-_D10
  8
_0-2_SUNPOU
 10
86.999992770158996
 20
61.499994703355213
 41
1
 42
1
 50
0
  0
LINE
  8
_0-5_CENTER
  6
CENTER
 62
    6
 10
272.29855766507182
 20
199.27439662991881
 11
317.89463943207181
 21
199.27439662991881
  0
LINE
  8
_0-5_CENTER
  6
CENTER
 62
    6
 10
302.0213226710718
 20
181.38860445291879
 11
302.0213226710718
 21
218.01916452391881
  0
ARC
  8
_0-9_1
  6
CONTINUOUS
 62
    7
 10
453.81753601429318
 20
235.868978152327
 40
3.2000000000000001
 50
0.0000000000553811
 51
90.000000000053731
  0
LINE
  8
_0-5_CENTER
  6
CENTER
 62
    6
 10
286.0213226710718
 20
183.91482826891882
 11
286.0213226710718
 21
336.87636643191876
  0
LINE
  8
_0-5_CENTER
  6
CENTER
 62
    6
 10
302.0213226710718
 20
306.04975042891885
 11
302.0213226710718
 21
339.69410182191882
  0
LINE
  8
_0-5_CENTER
  6
CENTER
 62
    6
 10
272.81087319107177
 20
323.27439662991866
 11
315.33306180407191
 21
323.27439662991866
  0
INSERT
  2
-011-_D11
  8
_0-2_SUNPOU
 10
86.999992770158996
 20
61.499994703355213
 41
1
 42
1
 50
0
  0
LINE
  8
_0-9_1
  6
CONTINUOUS
 62
    7
 10
339.72132267007191
 20
227.97439662891881
 11
334.72132267007191
 21
227.97439662891881
  0
LINE
  8
_0-9_1
  6
CONTINUOUS
 62
    7
 10
279.72132267107178
 20
211.87439662891881
 11
340.72132267107178
 21
211.87439662891881
  0
LINE
  8
_0-9_1
  6
CONTINUOUS
 62
    7
 10
279.72132267107178
 20
211.87439662891881
 11
279.72132267107178
 21
311.07439662891874
  0
LINE
  8
_0-9_1
  6
CONTINUOUS
 62
    7
 10
345.72132267107178
 20
216.87439662891881
 11
345.72132267107178
 21
306.0743966289188
  0
LINE
  8
_0-9_1
  6
CONTINUOUS
 62
    7
 10
279.72132267107178
 20
311.07439662891874
 11
340.72132267107178
 21
311.07439662891874
  0
LINE
  8
_0-9_1
  6
CONTINUOUS
 62
    7
 10
292.32132267107192
 20
211.87439662891881
 11
292.32132267107192
 21
311.07439662891874
  0
LINE
  8
_0-9_1
  6
CONTINUOUS
 62
    7
 10
325.52132267107185
 20
211.87439662891881
 11
325.52132267107185
 21
311.07439662891874
  0
LINE
  8
_0-9_1
  6
CONTINUOUS
 62
    7
 10
334.72132267007191
 20
222.97439662891881
 11
339.72132267007191
 21
222.97439662891881
  0
LINE
  8
_0-5_CENTER
  6
CENTER
 62
    6
 10
326.36253545707177
 20
225.47439662891881
 11
347.5165638240719
 21
225.47439662891881
  0
LINE
  8
_0-5_CENTER
  6
CENTER
 62
    6
 10
326.36253545707177
 20
249.47439662891881
 11
347.5165638240719
 21
249.47439662891881
  0
LINE
  8
_0-5_CENTER
  6
CENTER
 62
    6
 10
326.36253545707177
 20
273.47439662891883
 11
347.5165638240719
 21
273.47439662891883
  0
LINE
  8
_0-5_CENTER
  6
CENTER
 62
    6
 10
326.36253545707177
 20
297.47439662891883
 11
347.5165638240719
 21
297.47439662891883
  0
ARC
  8
_0-9_1
  6
CONTINUOUS
 62
    7
 10
423.81753601429329
 20
239.06897815232701
 40
3.2000000000000001
 50
180.0000000000553
 51
270.00000000005371
  0
ARC
  8
_0-9_1
  6
CONTINUOUS
 62
    7
 10
423.81753601429329
 20
281.66897815232709
 40
3.2000000000000001
 50
90.000000000053731
 51
180.0000000000553
  0
LINE
  8
_0-9_1
  6
CONTINUOUS
 62
    7
 10
452.33301233429318
 20
281.66897815232709
 11
455.10452891629319
 21
280.06884230732714
  0
LINE
  8
_0-9_1
  6
CENTER
 62
    2
 10
457.81753601429318
 20
288.15451430932711
 11
457.81753601429318
 21
268.82410907732702
  0
ARC
  8
_0-9_1
  6
CONTINUOUS
 62
    7
 10
457.81753601429318
 20
278.56897815232701
 40
6.299999999999998
 50
150.5237006156959
 51
90.000000000055365
  0
LINE
  8
_0-9_1
  6
CONTINUOUS
 62
    7
 10
423.81753601429329
 20
260.20935964132712
 11
423.81753601429329
 21
239.06897815232701
  0
LINE
  8
_0-9_1
  6
CENTER
 62
    2
 10
464.53936394429319
 20
278.56897815232701
 11
449.0639200312932
 21
278.56897815232701
  0
LINE
  8
_0-9_1
  6
CONTINUOUS
 62
    7
 10
420.61753601429319
 20
260.20935964132712
 11
420.61753601429319
 21
281.66897815232709
  0
LINE
  8
_0-9_1
  6
CONTINUOUS
 62
    7
 10
453.81753601429318
 20
235.868978152327
 11
453.81753601429318
 21
218.868978152327
  0
LINE
  8
_0-9_1
  6
CONTINUOUS
 62
    7
 10
453.81753601429318
 20
235.868978152327
 11
423.81753601429329
 21
235.868978152327
  0
LINE
  8
_0-9_1
  6
CONTINUOUS
 62
    7
 10
457.81753601429318
 20
284.86897815232714
 11
423.81753601429329
 21
284.86897815232714
  0
LINE
  8
_0-9_1
  6
CONTINUOUS
 62
    7
 10
423.81753601429329
 20
239.06897815232701
 11
453.81753601429318
 21
239.06897815232701
  0
LINE
  8
_0-9_1
  6
CONTINUOUS
 62
    7
 10
423.81753601429329
 20
281.66897815232709
 11
423.81753601429329
 21
260.20935964132712
  0
LINE
  8
_0-9_1
  6
CONTINUOUS
 62
    7
 10
457.81753601429318
 20
281.66897815232709
 11
423.81753601429329
 21
281.66897815232709
  0
LINE
  8
_0-9_1
  6
CONTINUOUS
 62
    7
 10
457.01753601429317
 20
235.868978152327
 11
457.01753601429317
 21
218.868978152327
  0
LINE
  8
_0-9_1
  6
CONTINUOUS
 62
    7
 10
420.61753601429319
 20
239.06897815232701
 11
420.61753601429319
 21
260.20935964132712
  0
LINE
  8
_0-9_1
  6
CONTINUOUS
 62
    7
 10
457.01753601429317
 20
218.868978152327
 11
453.81753601429318
 21
218.868978152327
  0
LINE
  8
_0-5_CENTER
  6
CENTER
 62
    6
 10
468.01753601429328
 20
278.56897815232701
 11
447.84428607329317
 21
278.56897815232701
  0
LINE
  8
_0-5_CENTER
  6
CENTER
 62
    6
 10
457.81753601429318
 20
267.38177699832704
 11
457.81753601429318
 21
292.48523774632712
  0
CIRCLE
  8
_0-9_1
  6
CONTINUOUS
 62
    7
 10
457.81753601429318
 20
278.56897815232701
 40
3.1
  0
LINE
  8
_0-9_1
  6
CONTINUOUS
 62
    7
 10
418.61753601429319
 20
285.56897815232701
 11
418.61753601429319
 21
255.56897815232701
  0
LINE
  8
_0-9_1
  6
HIDDEN
 62
    2
 10
463.21753601429321
 20
255.56897815232701
 11
463.21753601429321
 21
285.56897815232701
  0
LINE
  8
_0-9_1
  6
CONTINUOUS
 62
    7
 10
466.4175360142932
 20
285.56897815232701
 11
415.4175360142932
 21
285.56897815232701
  0
LINE
  8
_0-9_1
  6
CONTINUOUS
 62
    7
 10
415.4175360142932
 20
255.56897815232701
 11
415.4175360142932
 21
285.56897815232701
  0
LINE
  8
_0-9_1
  6
CONTINUOUS
 62
    7
 10
466.4175360142932
 20
255.56897815232701
 11
466.4175360142932
 21
285.56897815232701
  0
INSERT
  2
-012-_D12
  8
_0-2_SUNPOU
 10
86.999992770158996
 20
61.499994703355213
 41
1
 42
1
 50
0
  0
INSERT
  2
-013-_D13
  8
_0-2_SUNPOU
 10
86.999992770158996
 20
61.499994703355213
 41
1
 42
1
 50
0
  0
INSERT
  2
-014-_D14
  8
_0-2_SUNPOU
 10
86.999992770158996
 20
61.499994703355213
 41
1
 42
1
 50
0
  0
INSERT
  2
-015-_D15
  8
_0-2_SUNPOU
 10
86.999992770158996
 20
61.499994703355213
 41
1
 42
1
 50
0
  0
INSERT
  2
-016-_D16
  8
_0-2_SUNPOU
 10
86.999992770158996
 20
61.499994703355213
 41
1
 42
1
 50
0
  0
INSERT
  2
-017-_D17
  8
_0-2_SUNPOU
 10
86.999992770158996
 20
61.499994703355213
 41
1
 42
1
 50
0
  0
INSERT
  2
-018-_D18
  8
_0-2_SUNPOU
 10
86.999992770158996
 20
61.499994703355213
 41
1
 42
1
 50
0
  0
INSERT
  2
-019-_D19
  8
_0-2_SUNPOU
 10
86.999992770158996
 20
61.499994703355213
 41
1
 42
1
 50
0
  0
INSERT
  2
-020-_D20
  8
_0-2_SUNPOU
 10
86.999992770158996
 20
61.499994703355213
 41
1
 42
1
 50
0
  0
TEXT
  8
_0-9_1
 62
    7
 10
894.11902399036773
 20
893.64203840865286
 40
3.2000000000000001
 41
1.2769097222222198
 50
0
  1
            
  0
TEXT
  8
_0-9_1
 62
    7
 10
871.50630355323096
 20
851.67692691748789
 40
3.2000000000000001
 41
1.2769097222222198
 50
0
  1
            
  0
INSERT
  2
-021-_D21
  8
_0-2_SUNPOU
 10
86.999992770158996
 20
61.499994703355213
 41
1
 42
1
 50
0
  0
LINE
  8
_0-6_OSAMARISANKOU
  6
PHANTOM
 62
    3
 10
466.4175360142932
 20
260.20935964132712
 11
466.41753601429331
 21
248.768978152327
  0
LINE
  8
_0-6_OSAMARISANKOU
  6
PHANTOM
 62
    3
 10
415.4175360142932
 20
285.56897815232701
 11
399.78388370023242
 21
285.56897815232701
  0
LINE
  8
_0-6_OSAMARISANKOU
  6
PHANTOM
 62
    3
 10
466.4175360142932
 20
287.16897815232698
 11
399.78388370023242
 21
287.16897815232698
  0
LINE
  8
_0-6_OSAMARISANKOU
  6
PHANTOM
 62
    3
 10
468.01753601429317
 20
285.56897815232701
 11
468.01753601429317
 21
248.768978152327
  0
ARC
  8
_0-6_OSAMARISANKOU
  6
PHANTOM
 62
    3
 10
466.4175360142932
 20
285.56897815232701
 40
1.6
 50
0
 51
90
  0
LINE
  8
_0-6_OSAMARISANKOU
  6
PHANTOM
 62
    3
 10
466.4175360142932
 20
247.16897815232709
 11
399.78388370023242
 21
247.16897815232701
  0
LINE
  8
_0-6_OSAMARISANKOU
  6
PHANTOM
 62
    3
 10
466.41753601429331
 20
248.768978152327
 11
399.78388370023242
 21
248.768978152327
  0
ARC
  8
_0-6_OSAMARISANKOU
  6
PHANTOM
 62
    3
 10
466.4175360142932
 20
248.768978152327
 40
1.6
 50
270
 51
0
  0
LINE
  8
_0-6_OSAMARISANKOU
  6
PHANTOM
 62
    3
 10
458.01753601429317
 20
248.768978152327
 11
458.01753601429317
 21
247.16897815232701
  0
LINE
  8
_0-6_OSAMARISANKOU
  6
PHANTOM
 62
    3
 10
472.01753601429317
 20
288.56897815232707
 11
472.01753601429317
 21
244.16897815232701
  0
LINE
  8
_0-6_OSAMARISANKOU
  6
PHANTOM
 62
    3
 10
473.61753601429319
 20
290.16897815232698
 11
485.76256239515168
 21
290.16897815232698
  0
ARC
  8
_0-6_OSAMARISANKOU
  6
PHANTOM
 62
    3
 10
473.61753601429319
 20
288.56897815232707
 40
1.6
 50
90
 51
180
  0
LINE
  8
_0-6_OSAMARISANKOU
  6
PHANTOM
 62
    3
 10
472.01753601429328
 20
244.16897815232701
 11
458.61753601429319
 21
244.16897815232701
  0
LINE
  8
_0-6_OSAMARISANKOU
  6
PHANTOM
 62
    3
 10
457.51753601429328
 20
227.868978152327
 11
457.51753601429317
 21
242.56897815232701
  0
LINE
  8
_0-6_OSAMARISANKOU
  6
PHANTOM
 62
    3
 10
473.61753601429319
 20
288.56897815232707
 11
485.76256239515168
 21
288.56897815232707
  0
LINE
  8
_0-6_OSAMARISANKOU
  6
PHANTOM
 62
    3
 10
473.61753601429319
 20
288.56897815232707
 11
473.61753601429319
 21
244.16897815232701
  0
LINE
  8
_0-6_OSAMARISANKOU
  6
PHANTOM
 62
    3
 10
472.01753601429317
 20
242.56897815232701
 11
458.61753601429319
 21
242.56897815232701
  0
LINE
  8
_0-6_OSAMARISANKOU
  6
PHANTOM
 62
    3
 10
459.11753601429319
 20
213.868978152327
 11
459.11753601429319
 21
242.56897815232701
  0
LINE
  8
_0-6_OSAMARISANKOU
  6
PHANTOM
 62
    3
 10
457.51753601429317
 20
227.868978152327
 11
457.51753601429317
 21
213.868978152327
  0
ARC
  8
_0-6_OSAMARISANKOU
  6
PHANTOM
 62
    3
 10
459.11753601429319
 20
242.56897815232701
 40
1.6
 50
90
 51
180
  0
ARC
  8
_0-6_OSAMARISANKOU
  6
PHANTOM
 62
    3
 10
472.01753601429317
 20
244.16897815232701
 40
1.6
 50
270
 51
0.0000000000000636
  0
LINE
  8
_0-5_CENTER
  6
CENTER
 62
    6
 10
337.22132267007191
 20
304.56819482395428
 11
337.22132267007191
 21
222.19719187866272
  0
INSERT
  2
-022-_D22
  8
_0-2_SUNPOU
 10
86.999992770158996
 20
61.499994703355213
 41
1
 42
1
 50
0
  0
LINE
  8
_0-5_CENTER
  6
CENTER
 62
    6
 10
467.5398123789634
 20
227.86897815232711
 11
449.92939235113396
 21
227.868978152327
  0
LINE
  8
_0-6_OSAMARISANKOU
  6
PHANTOM
 62
    3
 10
463.61753601429319
 20
213.868978152327
 11
463.61753601429319
 21
242.56897815232701
  0
LINE
  8
_0-6_OSAMARISANKOU
  6
PHANTOM
 62
    3
 10
453.81753601429318
 20
230.368978152327
 11
466.37114067996202
 21
230.368978152327
  0
LINE
  8
_0-6_OSAMARISANKOU
  6
PHANTOM
 62
    3
 10
453.81753601429318
 20
225.368978152327
 11
466.37114067996202
 21
225.368978152327
  0
LINE
  8
_0-6_OSAMARISANKOU
  6
PHANTOM
 62
    3
 10
466.37114067996202
 20
225.368978152327
 11
466.37114067996202
 21
230.368978152327
  0
LINE
  8
_0-6_OSAMARISANKOU
  6
PHANTOM
 62
    3
 10
453.81753601429318
 20
229.868978152327
 11
466.37114067996202
 21
229.868978152327
  0
LINE
  8
_0-6_OSAMARISANKOU
  6
PHANTOM
 62
    3
 10
453.81753601429318
 20
225.868978152327
 11
466.37114067996202
 21
225.868978152327
  0
LINE
  8
_0-6_OSAMARISANKOU
  6
PHANTOM
 62
    3
 10
453.81753601429318
 20
232.06897815232701
 11
452.41753601429331
 21
232.06897815232701
  0
LINE
  8
_0-6_OSAMARISANKOU
  6
PHANTOM
 62
    3
 10
453.81753601429318
 20
223.66897815232701
 11
452.41753601429331
 21
223.66897815232701
  0
LINE
  8
_0-6_OSAMARISANKOU
  6
PHANTOM
 62
    3
 10
450.81753601429329
 20
225.268978152327
 11
450.81753601429329
 21
230.46897815232702
  0
ARC
  8
_0-6_OSAMARISANKOU
  6
PHANTOM
 62
    3
 10
452.41753601429331
 20
225.268978152327
 40
1.6
 50
180
 51
270
  0
ARC
  8
_0-6_OSAMARISANKOU
  6
PHANTOM
 62
    3
 10
452.41753601429331
 20
230.46897815232702
 40
1.6
 50
90
 51
180
  0
LINE
  8
_0-5_CENTER
  6
CENTER
 62
    6
 10
457.81753601429318
 20
267.20935964132701
 11
468.01753601429317
 21
267.20935964132712
  0
INSERT
  2
-023-_D23
  8
_0-2_SUNPOU
 10
86.999992770158996
 20
61.499994703355213
 41
1
 42
1
 50
0
  0
INSERT
  2
-024-_D24
  8
_0-2_SUNPOU
 10
86.999992770158996
 20
61.499994703355213
 41
1
 42
1
 50
0
  0
INSERT
  2
-025-_D25
  8
_0-2_SUNPOU
 10
86.999992770158996
 20
61.499994703355213
 41
1
 42
1
 50
0
  0
INSERT
  2
-026-_D26
  8
_0-2_SUNPOU
 10
86.999992770158996
 20
61.499994703355213
 41
1
 42
1
 50
0
  0
LINE
  8
_0-6_OSAMARISANKOU
  6
PHANTOM
 62
    3
 10
458.61753601429319
 20
213.868978152327
 11
480.16102688762919
 21
213.868978152327
  0
LINE
  8
_0-6_OSAMARISANKOU
  6
PHANTOM
 62
    3
 10
458.61753601429319
 20
212.268978152327
 11
480.16102688762919
 21
212.268978152327
  0
ARC
  8
_0-6_OSAMARISANKOU
  6
PHANTOM
 62
    3
 10
459.11753601429319
 20
213.868978152327
 40
1.6
 50
180.00000000000034
 51
270
  0
INSERT
  2
-027-_D27
  8
_0-2_SUNPOU
 10
86.999992770158996
 20
61.499994703355213
 41
1
 42
1
 50
0
  0
LINE
  8
_0-9_1
  6
CONTINUOUS
 62
    7
 10
207.58504322645148
 20
134.96279965791879
 11
156.58504322645151
 21
134.96279965791879
  0
LINE
  8
_0-9_1
  6
CONTINUOUS
 62
    7
 10
466.4175360142932
 20
255.56897815232701
 11
456.80995589960519
 21
255.56897815232701
  0
LINE
  8
_0-9_1
  6
CONTINUOUS
 62
    7
 10
420.61753601429319
 20
255.56897815232701
 11
415.4175360142932
 21
255.56897815232701
  0
INSERT
  2
-028-_D28
  8
_0-2_SUNPOU
 10
86.999992770158996
 20
61.499994703355213
 41
1
 42
1
 50
0
  0
INSERT
  2
-029-_D29
  8
_0-2_SUNPOU
 10
86.999992770158996
 20
61.499994703355213
 41
1
 42
1
 50
0
  0
TEXT
  8
_0-2_SUNPOU
 62
    7
 10
326.2666516278262
 20
176.67482354190559
 40
3
 41
1
 50
0
  1
4-M4タップ
  0
LINE
  8
_0-9_1
  6
CONTINUOUS
 62
    7
 10
309.02132267107185
 20
310.87439662891881
 11
309.02132267107185
 21
326.27439662991866
  0
LINE
  8
_0-8_HONTAIFUKASIBU
  6
DASHED
 62
    2
 10
309.02132267107185
 20
311.07439662891874
 11
309.02132267107185
 21
211.87439662891881
  0
INSERT
  2
-030-_D30
  8
_0-2_SUNPOU
 10
86.999992770158996
 20
61.499994703355213
 41
1
 42
1
 50
0
  0
TEXT
  8
_0-2_SUNPOU
 62
    7
 10
411.53923912909857
 20
175.75948001668731
 40
3
 41
1
 50
0
  1
開き角：90゜左右勝手なし
  0
LINE
  8
_0-2_SUNPOU
  6
CONTINUOUS
 62
    7
 10
410.53923912909857
 20
174.75948001668731
 11
479.23295236274537
 21
174.75948001668731
  0
LINE
  8
_0-2_SUNPOU
  6
CONTINUOUS
 62
    7
 10
410.53923912909857
 20
168.75948001668731
 11
479.23295236274537
 21
168.75948001668731
  0
TEXT
  8
_0-2_SUNPOU
 62
    7
 10
411.53923912909857
 20
169.75948001668731
 40
3
 41
1
 50
0
  1
適用扉：片面フラッシュ扉
  0
LINE
  8
_0-2_SUNPOU
  6
CONTINUOUS
 62
    7
 10
410.53923912909857
 20
162.75948001668731
 11
479.23295236274537
 21
162.75948001668731
  0
TEXT
  8
_0-2_SUNPOU
 62
    7
 10
411.53923912909857
 20
163.75948001668731
 40
3
 41
1
 50
0
  1
耐重量は、別途ご相談ください。
  0
INSERT
  2
-031-_D31
  8
_0-2_SUNPOU
 10
86.999992770158996
 20
61.499994703355213
 41
1
 42
1
 50
0
  0
INSERT
  2
-032-_D32
  8
_0-2_SUNPOU
 10
86.999992770158996
 20
61.499994703355213
 41
1
 42
1
 50
0
  0
INSERT
  2
-033-_D33
  8
_0-2_SUNPOU
 10
86.999992770158996
 20
61.499994703355213
 41
1
 42
1
 50
0
  0
INSERT
  2
-034-_D34
  8
_0-2_SUNPOU
 10
86.999992770158996
 20
61.499994703355213
 41
1
 42
1
 50
0
  0
INSERT
  2
-035-_D35
  8
_0-2_SUNPOU
 10
86.999992770158996
 20
61.499994703355213
 41
1
 42
1
 50
0
  0
LINE
  8
_0-9_1
  6
CONTINUOUS
 62
    7
 10
450.00269575987977
 20
255.56897815232701
 11
423.81753601429318
 21
255.56897815232701
  0
INSERT
  2
-036-_D36
  8
_0-2_SUNPOU
 10
86.999992770158996
 20
61.499994703355213
 41
1
 42
1
 50
0
  0
LINE
  8
_0-4_HONTAI
  6
CONTINUOUS
 62
    7
 10
328.58260841172398
 20
136.87555391966108
 11
326.5826084117242
 21
136.87555391966094
  0
LINE
  8
_0-4_HONTAI
  6
CONTINUOUS
 62
    7
 10
235.58260841172429
 20
131.8755539196606
 11
235.58260841172429
 21
122.37555391966063
  0
LINE
  8
_0-4_HONTAI
  6
CONTINUOUS
 62
    7
 10
240.58260841172429
 20
117.37555391966063
 11
328.58260841172432
 21
117.37555391966108
  0
ARC
  8
_0-4_HONTAI
  6
CONTINUOUS
 62
    7
 10
240.58260841172429
 20
122.37555391966084
 40
5
 50
180
 51
270
  0
LINE
  8
_0-4_HONTAI
  6
CONTINUOUS
 62
    7
 10
333.58260841172432
 20
122.37555391966108
 11
333.58260841172432
 21
131.87555391966108
  0
LINE
  8
_0-4_HONTAI
  6
CONTINUOUS
 62
    7
 10
324.58260841172432
 20
126.37555391966085
 11
324.58260841172432
 21
134.87555391966094
  0
LINE
  8
_0-4_HONTAI
  6
CONTINUOUS
 62
    7
 10
316.58260841172432
 20
126.37555391966085
 11
316.58260841172432
 21
134.87555391966083
  0
LINE
  8
_0-4_HONTAI
  6
CONTINUOUS
 62
    7
 10
314.58260841172432
 20
136.87555391966083
 11
302.58260841172449
 21
136.87555391966066
  0
LINE
  8
_0-4_HONTAI
  6
CONTINUOUS
 62
    7
 10
290.5826084117246
 20
136.87555391966066
 11
278.58260841172449
 21
136.87555391966083
  0
LINE
  8
_0-4_HONTAI
  6
CONTINUOUS
 62
    7
 10
266.58260841172449
 20
136.87555391966083
 11
254.58260841172449
 21
136.87555391966066
  0
LINE
  8
_0-4_HONTAI
  6
CONTINUOUS
 62
    7
 10
242.58260841172449
 20
136.87555391966066
 11
240.58260841172429
 21
136.8755539196606
  0
LINE
  8
_0-5_CENTER
  6
CENTER
 62
    6
 10
320.58260841172409
 20
116.16224742911319
 11
320.58260841172409
 21
138.13657192857564
  0
LINE
  8
_0-5_CENTER
  6
CENTER
 62
    6
 10
326.63821945768449
 20
126.37555391966085
 11
314.46653301817241
 21
126.37555391966085
  0
LINE
  8
_0-4_HONTAI
  6
CONTINUOUS
 62
    7
 10
300.58260841172449
 20
126.37555391966085
 11
300.58260841172449
 21
134.87555391966066
  0
LINE
  8
_0-4_HONTAI
  6
CONTINUOUS
 62
    7
 10
292.5826084117246
 20
126.37555391966085
 11
292.5826084117246
 21
134.87555391966066
  0
LINE
  8
_0-5_CENTER
  6
CENTER
 62
    6
 10
296.58260841172432
 20
116.16224742911319
 11
296.58260841172432
 21
138.13657192857564
  0
LINE
  8
_0-5_CENTER
  6
CENTER
 62
    6
 10
302.13821945768472
 20
126.37555391966085
 11
290.46653301817269
 21
126.37555391966085
  0
LINE
  8
_0-4_HONTAI
  6
CONTINUOUS
 62
    7
 10
276.58260841172449
 20
126.37555391966085
 11
276.58260841172449
 21
134.87555391966083
  0
LINE
  8
_0-4_HONTAI
  6
CONTINUOUS
 62
    7
 10
268.58260841172449
 20
126.37555391966085
 11
268.58260841172449
 21
134.87555391966083
  0
LINE
  8
_0-5_CENTER
  6
CENTER
 62
    6
 10
272.58260841172432
 20
116.16224742911319
 11
272.58260841172432
 21
138.13657192857564
  0
LINE
  8
_0-5_CENTER
  6
CENTER
 62
    6
 10
278.13821945768461
 20
126.37555391966085
 11
266.46653301817258
 21
126.37555391966085
  0
LINE
  8
_0-4_HONTAI
  6
CONTINUOUS
 62
    7
 10
252.58260841172449
 20
126.37555391966085
 11
252.58260841172449
 21
134.87555391966066
  0
LINE
  8
_0-4_HONTAI
  6
CONTINUOUS
 62
    7
 10
244.58260841172449
 20
126.37555391966085
 11
244.58260841172449
 21
134.87555391966063
  0
LINE
  8
_0-5_CENTER
  6
CENTER
 62
    6
 10
248.58260841172429
 20
116.16224742911319
 11
248.58260841172429
 21
138.13657192857564
  0
LINE
  8
_0-5_CENTER
  6
CENTER
 62
    6
 10
254.13821945768458
 20
126.37555391966085
 11
242.46653301817258
 21
126.37555391966085
  0
LINE
  8
_0-6_OSAMARISANKOU
  6
PHANTOM
 62
    3
 10
457.01753601429317
 20
218.868978152327
 11
457.51753601429317
 21
218.868978152327
  0
LINE
  8
_0-6_OSAMARISANKOU
  6
PHANTOM
 62
    3
 10
457.01753601429317
 20
235.8689781523301
 11
457.51753601429328
 21
235.8689781523301
  0
TEXT
  8
_0-3_TEXT
 62
    7
 10
225.099275078391
 20
94.87192530100097
 40
3.25
 41
1
 50
0
  1
2449-SP：スぺ－サー図
  0
TEXT
  8
_0-3_TEXT
 62
    7
 10
458.75673632259497
 20
204.58113134025032
 40
3.25
 41
1
 50
0
  1
*
  0
TEXT
  8
_0-3_TEXT
 62
    7
 10
274.58260841172432
 20
94.87192530100097
 40
3.25
 41
1
 50
0
  1
（SUS-304-2B素地：板厚ｔ＝0.5ｍｍ）
  0
ARC
  8
_0-4_HONTAI
  6
CONTINUOUS
 62
    7
 10
339.72132267007191
 20
225.47439662891881
 40
2.5
 50
270
 51
90
  0
ARC
  8
_0-4_HONTAI
  6
CONTINUOUS
 62
    7
 10
334.72132267007191
 20
225.47439662891881
 40
2.5
 50
90
 51
270
  0
LINE
  8
_0-9_1
  6
CONTINUOUS
 62
    7
 10
339.72132267007191
 20
251.97439662891881
 11
334.72132267007191
 21
251.97439662891881
  0
LINE
  8
_0-9_1
  6
CONTINUOUS
 62
    7
 10
334.72132267007191
 20
246.97439662891881
 11
339.72132267007191
 21
246.97439662891872
  0
ARC
  8
_0-4_HONTAI
  6
CONTINUOUS
 62
    7
 10
339.72132267007191
 20
249.47439662891881
 40
2.5
 50
270
 51
90
  0
ARC
  8
_0-4_HONTAI
  6
CONTINUOUS
 62
    7
 10
334.72132267007191
 20
249.47439662891881
 40
2.5
 50
90
 51
270
  0
LINE
  8
_0-9_1
  6
CONTINUOUS
 62
    7
 10
339.72132267007191
 20
275.97439662891883
 11
334.72132267007191
 21
275.97439662891883
  0
LINE
  8
_0-9_1
  6
CONTINUOUS
 62
    7
 10
334.72132267007191
 20
270.97439662891883
 11
339.72132267007191
 21
270.97439662891883
  0
ARC
  8
_0-4_HONTAI
  6
CONTINUOUS
 62
    7
 10
339.72132267007191
 20
273.47439662891883
 40
2.5
 50
270
 51
90
  0
ARC
  8
_0-4_HONTAI
  6
CONTINUOUS
 62
    7
 10
334.72132267007191
 20
273.47439662891883
 40
2.5
 50
90
 51
270
  0
LINE
  8
_0-9_1
  6
CONTINUOUS
 62
    7
 10
339.72132267007191
 20
299.37439662891881
 11
334.72132267007191
 21
299.37439662891881
  0
LINE
  8
_0-9_1
  6
CONTINUOUS
 62
    7
 10
334.72132267007191
 20
294.97439662891883
 11
339.72132267007191
 21
294.97439662891883
  0
ARC
  8
_0-4_HONTAI
  6
CONTINUOUS
 62
    7
 10
340.00332267007189
 20
297.17439662891877
 40
2.2180000000000181
 50
262.69555443938708
 51
97.30444556061299
  0
ARC
  8
_0-4_HONTAI
  6
CONTINUOUS
 62
    7
 10
334.43932267007187
 20
297.17439662891877
 40
2.2179999999999902
 50
82.695554439387024
 51
277.30444556061291
  0
INSERT
  2
-037-_D37
  8
_0-2_SUNPOU
 10
86.999992770158996
 20
61.499994703355213
 41
1
 42
1
 50
0
  0
INSERT
  2
-038-_D38
  8
_0-2_SUNPOU
 10
86.999992770158996
 20
61.499994703355213
 41
1
 42
1
 50
0
  0
INSERT
  2
-039-_D39
  8
_0-2_SUNPOU
 10
86.999992770158996
 20
61.499994703355213
 41
1
 42
1
 50
0
  0
INSERT
  2
-040-_D40
  8
_0-2_SUNPOU
 10
86.999992770158996
 20
61.499994703355213
 41
1
 42
1
 50
0
  0
INSERT
  2
-041-_D41
  8
_0-2_SUNPOU
 10
86.999992770158996
 20
61.499994703355213
 41
1
 42
1
 50
0
  0
INSERT
  2
-042-_D42
  8
_0-2_SUNPOU
 10
86.999992770158996
 20
61.499994703355213
 41
1
 42
1
 50
0
  0
INSERT
  2
-043-_D43
  8
_0-2_SUNPOU
 10
86.999992770158996
 20
61.499994703355213
 41
1
 42
1
 50
0
  0
INSERT
  2
-044-_D44
  8
_0-2_SUNPOU
 10
86.999992770158996
 20
61.499994703355213
 41
1
 42
1
 50
0
  0
TEXT
  8
_0-3_TEXT
 62
    7
 10
297.45832610349225
 20
75.374994703355383
 40
2.5
 41
1
 50
0
  1
2017/1/24
  0
INSERT
  2
-045-_D45
  8
_0-2_SUNPOU
 10
86.999992770158996
 20
61.499994703355213
 41
1
 42
1
 50
0
  0
LINE
  8
_0-4_HONTAI
  6
CONTINUOUS
 62
    7
 10
321.08260841172432
 20
122.87555391966085
 11
320.08260841172432
 21
122.87555391966085
  0
LINE
  8
_0-4_HONTAI
  6
CONTINUOUS
 62
    7
 10
297.08260841172449
 20
122.87555391966085
 11
296.0826084117246
 21
122.87555391966085
  0
LINE
  8
_0-4_HONTAI
  6
CONTINUOUS
 62
    7
 10
273.08260841172449
 20
122.87555391966085
 11
272.08260841172449
 21
122.87555391966085
  0
LINE
  8
_0-4_HONTAI
  6
CONTINUOUS
 62
    7
 10
249.08260841172449
 20
122.87555391966085
 11
248.08260841172449
 21
122.87555391966085
  0
ARC
  8
_0-4_HONTAI
  6
CONTINUOUS
 62
    7
 10
321.08260841172432
 20
126.37555391966085
 40
3.5
 50
270
 51
0
  0
ARC
  8
_0-4_HONTAI
  6
CONTINUOUS
 62
    7
 10
320.08260841172432
 20
126.37555391966085
 40
3.5
 50
180
 51
270
  0
ARC
  8
_0-4_HONTAI
  6
CONTINUOUS
 62
    7
 10
297.08260841172449
 20
126.37555391966085
 40
3.5
 50
270
 51
0
  0
ARC
  8
_0-4_HONTAI
  6
CONTINUOUS
 62
    7
 10
296.0826084117246
 20
126.37555391966085
 40
3.5
 50
180
 51
270
  0
ARC
  8
_0-4_HONTAI
  6
CONTINUOUS
 62
    7
 10
273.08260841172449
 20
126.37555391966085
 40
3.5
 50
270
 51
0
  0
ARC
  8
_0-4_HONTAI
  6
CONTINUOUS
 62
    7
 10
272.08260841172449
 20
126.37555391966085
 40
3.5
 50
180
 51
270
  0
ARC
  8
_0-4_HONTAI
  6
CONTINUOUS
 62
    7
 10
248.08260841172449
 20
126.37555391966085
 40
3.5
 50
180
 51
270
  0
ARC
  8
_0-4_HONTAI
  6
CONTINUOUS
 62
    7
 10
249.08260841172449
 20
126.37555391966085
 40
3.5
 50
270
 51
0
  0
INSERT
  2
-046-_D46
  8
_0-2_SUNPOU
 10
86.999992770158996
 20
61.499994703355213
 41
1
 42
1
 50
0
  0
ARC
  8
_0-9_1
  6
CONTINUOUS
 62
    7
 10
340.72132267107178
 20
306.0743966289188
 40
5
 50
0
 51
90
  0
ARC
  8
_0-9_1
  6
CONTINUOUS
 62
    7
 10
340.72132267107178
 20
216.87439662891881
 40
5
 50
270
 51
0
  0
ARC
  8
_0-9_1
  6
CONTINUOUS
 62
    7
 10
284.0213226710718
 20
326.27439662991866
 40
5
 50
90
 51
180
  0
ARC
  8
_0-9_1
  6
CONTINUOUS
 62
    7
 10
304.02132267107185
 20
326.27439662991866
 40
5
 50
0
 51
90
  0
ARC
  8
_0-9_1
  6
CONTINUOUS
 62
    7
 10
304.02132267107185
 20
196.27439662991881
 40
5
 50
270
 51
0
  0
ARC
  8
_0-9_1
  6
CONTINUOUS
 62
    7
 10
284.0213226710718
 20
196.27439662991881
 40
5
 50
180
 51
270
  0
ARC
  8
_0-4_HONTAI
  6
CONTINUOUS
 62
    7
 10
326.58260841172432
 20
134.87555391966094
 40
2
 50
90.000000000003893
 51
180
  0
ARC
  8
_0-4_HONTAI
  6
CONTINUOUS
 62
    7
 10
314.58260841172432
 20
134.87555391966083
 40
2
 50
0
 51
90.00000000000081
  0
ARC
  8
_0-4_HONTAI
  6
CONTINUOUS
 62
    7
 10
302.58260841172449
 20
134.87555391966066
 40
2
 50
90.00000000000081
 51
180
  0
ARC
  8
_0-4_HONTAI
  6
CONTINUOUS
 62
    7
 10
290.5826084117246
 20
134.87555391966066
 40
2
 50
0
 51
89.999999999999204
  0
ARC
  8
_0-4_HONTAI
  6
CONTINUOUS
 62
    7
 10
278.58260841172449
 20
134.87555391966083
 40
2
 50
89.999999999999204
 51
180
  0
ARC
  8
_0-4_HONTAI
  6
CONTINUOUS
 62
    7
 10
266.58260841172449
 20
134.87555391966083
 40
2
 50
0
 51
90.00000000000081
  0
ARC
  8
_0-4_HONTAI
  6
CONTINUOUS
 62
    7
 10
254.58260841172449
 20
134.87555391966066
 40
2
 50
90.00000000000081
 51
180
  0
ARC
  8
_0-4_HONTAI
  6
CONTINUOUS
 62
    7
 10
242.58260841172449
 20
134.87555391966063
 40
2
 50
0
 51
90.000000000000184
  0
ARC
  8
_0-4_HONTAI
  6
CONTINUOUS
 62
    7
 10
240.58260841172429
 20
131.8755539196606
 40
5
 50
90.000000000000397
 51
180
  0
ARC
  8
_0-4_HONTAI
  6
CONTINUOUS
 62
    7
 10
328.58260841172432
 20
131.87555391966108
 40
5
 50
0
 51
90.000000000004064
  0
ARC
  8
_0-4_HONTAI
  6
CONTINUOUS
 62
    7
 10
328.58260841172432
 20
122.37555391966108
 40
5
 50
270.00000000000022
 51
0.0000000000000254
  0
LINE
  8
_0-1_ZUWAKU
  6
CONTINUOUS
 62
    5
 10
494.99999277015899
 20
113.49999470335515
 11
389.99999277015899
 21
113.49999470335515
  0
LINE
  8
_0-1_ZUWAKU
  6
CONTINUOUS
 62
    5
 10
389.99999277015899
 20
113.49999470335515
 11
389.99999277015899
 21
95.499994703355156
  0
LINE
  8
_0-1_ZUWAKU
  6
CONTINUOUS
 62
    5
 10
439.99999277015899
 20
113.49999470335515
 11
439.99999277015899
 21
95.499994703355156
  0
LINE
  8
_0-1_ZUWAKU
  6
CONTINUOUS
 62
    5
 10
469.99999277015899
 20
113.49999470335515
 11
469.99999277015899
 21
95.499994703355156
  0
LINE
  8
_0-1_ZUWAKU
  6
CONTINUOUS
 62
    5
 10
449.99999277015899
 20
113.49999470335515
 11
449.99999277015899
 21
95.499994703355156
  0
LINE
  8
_0-1_ZUWAKU
  6
CONTINUOUS
 62
    5
 10
399.99999277015899
 20
113.49999470335515
 11
399.99999277015899
 21
95.499994703355156
  0
LINE
  8
_0-1_ZUWAKU
  6
CONTINUOUS
 62
    5
 10
494.99999277015899
 20
101.49999470335515
 11
389.99999277015899
 21
101.49999470335515
  0
TEXT
  8
_0-3_TEXT
 62
    7
 10
454.14999277015897
 20
109.19999470335517
 40
2.9249999999999989
 41
1
 50
0
  1
SWCH
  0
TEXT
  8
_0-3_TEXT
 62
    7
 10
444.51249277015898
 20
109.19999470335517
 40
2.9249999999999989
 41
1
 50
0
  1
1
  0
TEXT
  8
_0-3_TEXT
 62
    7
 10
454.63749277015898
 20
103.19999470335517
 40
2.9249999999999989
 41
1
 50
0
  1
SPHC
  0
TEXT
  8
_0-3_TEXT
 62
    7
 10
458.63499277015898
 20
97.199994703355173
 40
2.9249999999999989
 41
1
 50
0
  1
〃
  0
TEXT
  8
_0-3_TEXT
 62
    7
 10
471.60999277015901
 20
108.99999470335515
 40
3
 41
0.9
 50
0
  1
ジンクロメート
  0
TEXT
  8
_0-3_TEXT
 62
    7
 10
401.49999277015899
 20
103.19999470335517
 40
2.9249999999999989
 41
1
 50
0
  1
扉側羽根
  0
TEXT
  8
_0-3_TEXT
 62
    7
 10
401.49999277015899
 20
97.199994703355173
 40
2.9249999999999989
 41
1
 50
0
  1
枠側羽根
  0
TEXT
  8
_0-3_TEXT
 62
    7
 10
401.49999277015899
 20
109.19999470335517
 40
2.9249999999999989
 41
1
 50
0
  1
軸芯
  0
LINE
  8
_0-1_ZUWAKU
  6
CONTINUOUS
 62
    5
 10
494.99999277015899
 20
107.49999470335515
 11
389.99999277015899
 21
107.49999470335515
  0
TEXT
  8
_0-3_TEXT
 62
    7
 10
444.51249277015898
 20
97.199994703355173
 40
2.9249999999999989
 41
1
 50
0
  1
1
  0
TEXT
  8
_0-3_TEXT
 62
    7
 10
444.51249277015898
 20
103.19999470335517
 40
2.9249999999999989
 41
1
 50
0
  1
1
  0
TEXT
  8
_0-3_TEXT
 62
    7
 10
481.13499277015898
 20
103.19999470335517
 40
2.9249999999999989
 41
1
 50
0
  1
〃
  0
TEXT
  8
_0-3_TEXT
 62
    7
 10
481.13499277015898
 20
97.199994703355201
 40
2.9249999999999989
 41
1
 50
0
  1
〃
  0
TEXT
  8
_0-3_TEXT
 62
    7
 10
390.612492770159
 20
109.19999470335517
 40
2.9249999999999989
 41
0.45
 50
0
  1
2449N-4
  0
TEXT
  8
_0-3_TEXT
 62
    7
 10
393.63499277015898
 20
103.19999470335514
 40
2.9249999999999989
 41
1
 50
0
  1
〃
  0
TEXT
  8
_0-3_TEXT
 62
    7
 10
393.63499277015898
 20
97.199994703355145
 40
2.9249999999999989
 41
1
 50
0
  1
〃
  0
TEXT
  8
_0-3_TEXT
 62
    7
 10
113.99999277015882
 20
99.499994703355383
 40
3.25
 41
1
 50
0
  1
※取付ビスは別途ご用意ください
  0
TEXT
  8
_0-3_TEXT
 62
    7
 10
398.67028546033429
 20
209.89976552124161
 40
2.5
 41
1
 50
0
  1
チリ寸法が確保できない場合には、
  0
TEXT
  8
_0-3_TEXT
 62
    7
 10
398.67028546033429
 20
206.14976552124161
 40
2.5
 41
1
 50
0
  1
スペーサーを入れ、*印部分の
  0
LINE
  8
_0-7_DEFPOINTS
  6
CONTINUOUS
 62
    7
 10
506.99999277015876
 20
358.49999470335546
 11
526.99999277015876
 21
358.49999470335546
  0
LINE
  8
_0-7_DEFPOINTS
  6
CONTINUOUS
 62
    7
 10
526.99999277015876
 20
358.49999470335546
 11
506.99999277015876
 21
358.49999470335546
  0
LINE
  8
_0-7_DEFPOINTS
  6
CONTINUOUS
 62
    7
 10
506.99999277015876
 20
358.49999470335546
 11
506.99999277015876
 21
378.49999470335546
  0
LINE
  8
_0-7_DEFPOINTS
  6
CONTINUOUS
 62
    7
 10
506.99999277015876
 20
378.49999470335546
 11
506.99999277015876
 21
358.49999470335546
  0
LINE
  8
_0-7_DEFPOINTS
  6
CONTINUOUS
 62
    7
 10
86.999992770158996
 20
61.499994703355213
 11
66.999992770158996
 21
61.499994703355213
  0
LINE
  8
_0-7_DEFPOINTS
  6
CONTINUOUS
 62
    7
 10
66.999992770158996
 20
61.499994703355213
 11
86.999992770158996
 21
61.499994703355213
  0
LINE
  8
_0-7_DEFPOINTS
  6
CONTINUOUS
 62
    7
 10
86.999992770158996
 20
61.499994703355213
 11
86.999992770158996
 21
41.499994703355213
  0
LINE
  8
_0-7_DEFPOINTS
  6
CONTINUOUS
 62
    7
 10
86.999992770158996
 20
41.499994703355213
 11
86.999992770158996
 21
61.499994703355213
  0
TEXT
  8
_0-3_TEXT
 62
    7
 10
459.49999277015899
 20
341.53749470335537
 40
3.25
 41
1
 50
0
  1
H01-007-11
  0
TEXT
  8
_0-3_TEXT
 62
    7
 10
398.67028546033429
 20
202.39976552124161
 40
2.5
 41
1
 50
0
  1
寸法調整をお願いします。
  0
ENDSEC
  0
EOF
